Death Cab For Cutie - What Sarah Said Chords & Tabs

 

What Sarah Said Chords & Tabs

Death Cab For Cutie Chords & Tabs

Version: 1 Type: Tab 0 ratings
1 star 2 stars 3 stars 4 stars 5 stars
comments

What Sarah Said Tab

great song.  listen to it a couple times and you'll get the timing.


Intro
---9--9--9--9--8--8--8--8--7--7--7--7--7--7--7--7-|
--7--7--7--7--7--7--7--7--7--7--7--7--7--7--7--7--|
-7--7--7--7--6--6--6--6--5--5--5--5--4--4--4--4---|    4 times
--------------------------------------------------|
--------------------------------------------------|
--------------------------------------------------|

Verse
-------1--------------------3---------------5--------------3--------|
-------1--------------------3---------------5--------------3--------|
-------2--------------------4---------------6--------------4--------|
-------3--------------------5---------------7--------------5--------|
-------3--------------------5---------------7--------------5--------|
-------1--------------------3---------------5--------------3--------|
And it came to me then that every plan is a tiny glance of father time
As I stared at my shoes in the ICU that reeked of piss and 409

[ Tab from: http://www.guitartabs.cc/tabs/d/death_cab_for_cutie/what_sarah_said_tab.html ]
*play intro again with second guitar starting here*
------1------------------------3-----------------------5----------------3--|
------1------------------------3-----------------------5----------------3--|
------2------------------------4-----------------------6----------------4--|
------3------------------------5-----------------------7----------------5--|
------3------------------------5-----------------------7----------------5--|
------1------------------------3----------5--7---------5----------------3--|
And I rationed my breaths as I said to myself that I'd already taken to much today
As each descending peak of the LCD took you a little farther away from me
Amongst the vending machines and year old magazines
In a place where we only say goodbye
It's done like a violent limp that out memories depend on a faulty camera in our minds
And I knew that you were truth I would rather loved than to never lain in the sun at all
Then I looked around at all the eyes on the ground as the TV entertained it's self


--------------7-----------5--------------3--------------1--------|
--------------7-----------5--------------3--------------1--------|
--------------8-----------6--------------4--------------2--------|
--------------9-----------7--------------5--------------3--------|
--------------9-----------7--------------5--------------3--------|
--------------7-----------5--------------3--------------1--------|
Cause there's no comfort in the waiting room
just nervous paces bracing for bad news
Then the nurse comes round and everyone lifts their head


--------7----------------9-7-5-3-1--|
--------7---------------------------|
--------8---------------------------|
--------9---------------------------|
--------9---------------------------|
--------7---------------------------|
And I'm thinking of what Sarah said but love is watching someone die

thats all i got so far.
Comments