Death Cab For Cutie - We Looked Like Giants Chords & Tabs

 

We Looked Like Giants Chords & Tabs

Death Cab For Cutie Chords & Tabs

Version: 4 Type: Tab

We Looked Like Giants Tab

----------------------------------------------------------------------------
We Looked Like Giants - Death Cab For Cutie
----------------------------------------------------------------------------

tuning: EADGBe
tabbed by: Casey 
ccsj@sbcglobal.net

this song is pretty easy once u get to know it well enough.
ive seen a lot of other people's tabs on this site, and they all mostly sucked,
so heres one that should be almost perfect. its hard to listen for the 2nd guitar
in this song. ENjoi!
----------------------------------------------------------------------------
1st guitar:
intro (repeat 3x)
[---------------------------]
[---------------------------]
[---------------------------]
[---------------------------]
[----5----5----4----9--7----]
[---------------------------]

1st guitar:
interlude (repeat 2x)
[----------------------------------------------------------------]
[----------------------------------------------------------------]
[-----7-6-2--4-------7-6-2--4-------6-7-6-7-6-7--7-9-7-9-467-----]
[-------------2-4------------2-4-0-------------------------------]
[-----------------2----------------------------------------------]
[----------------------------------------------------------------]

2nd guitar 
interlude (repeat 2x)
[--------------------------------------------------------------------------]
[--------------------------------------------------------------------------]
[--------------------------------------------------------------------------]
[---------------------------------------7-7-9-9--7-------------------------]
[------12-11-11--9-7---12-11-11--9-7---------------9---7-7-9-9--7----------]
[----7---------------7---------------10--------------5-----------579-7-----]

1st guitar:
verse
[------------------------------------------------------]
[----3--------3----2--------3--------3----2------------]
[----4--------2----2--------3--------2----2------------]
[----4--------0----2--------4--------0----2------------]
[-----------------------2452-------------------2452----]
[------------------------------------------------------]
[ Tab from: http://www.guitartabs.cc/tabs/d/death_cab_for_cutie/we_looked_like_giants_tab_ver_4.html ]
2nd guitar:
verse
[------------------------------------------------------]
[------------------------------------------------------]
[------------------------------------------------------]
[------------------------------------------------------]
[----2pm------5pm--0pm--24522pm------5pm--0pm--2452----]
[------------------------------------------------------]

repeat interlude once
(same as first interlude, only the last notes are changed as fllowed)
[---------------------]
[---------------------]
[---------------------]
[---------------------]
[------7-5-5----------]
[----5-------9-5-7----]

repeat verse once

1st guitar:
chorus
[----2-2-2-2--3-3-3-3--5-5-5-5-5-5-5-5----]
[----3-3-3-3--3-3-3-3--5-5-5-5-5-5-5-5----]
[----4-4-4-4--4-4-4-4--6-6-6-6-6-6-6-6----]
[----4-4-4-4--5-5-5-5--7-7-7-7-7-7-7-7----]
[----2-2-2-2--5-5-5-5--7-7-7-7-7-7-7-7----]
[----2-2-2-2--3-3-3-3--5-5-5-5-5-5-5-5----]

2nd guitar:
chorus
[-----------------------------------------]
[-----------------------------------------]
[----4-4-4-4------------------------------]
[----4-4-4-4--5-5-5-5--7-7-7-7-7-7-7-7----]
[----2-2-2-2--5-5-5-5--7-7-7-7-7-7-7-7----]
[-------------3-3-3-3--5-5-5-5-5-5-5-5----]

1st guitar:
chorus
[----2-2-2-2--3-3-3-3--5-5-5-5--2-2-2-2---]
[----3-3-3-3--3-3-3-3--5-5-5-5--2-2-2-2---]
[----4-4-4-4--4-4-4-4--6-6-6-6--2-2-2-2---]
[----4-4-4-4--5-5-5-5--7-7-7-7--4-4-4-4---]
[----2-2-2-2--5-5-5-5--7-7-7-7--4-4-4-4---]
[----2-2-2-2--3-3-3-3--5-5-5-5--2-2-2-2---]

2nd guitar:
chorus
[-----------------------------------------]
[-----------------------------------------]
[----4-4-4-4------------------------------]
[----4-4-4-4--5-5-5-5--7-7-7-7--4-4-4-4---]
[----2-2-2-2--5-5-5-5--7-7-7-7--4-4-4-4---]
[-------------3-3-3-3--5-5-5-5--2-2-2-2---]

repeat interlude twice

1st guitar:
final verse (repeat 21x until next part) 
[--------------]
[----222223----]
[----222220----]
[----222220----]
[---------2----]
[---------3----]

2nd guitar:
final verse (repeat 21x until next part)
[--------------]
[--------------]
[--------------]
[----5---------]
[----5---------]
[----3---------]

1st guitar:
final verse (repeat til end of somg)
[------0-------------0------]
[----------------------2----]
[----------------------2----]
[-------------42-------2----]
[-----2----045--454-2--0----]
[----3-------------3--------]
 

I think that was right. 
if u think some of this isnt right, just email me!
thanx, guys