Death Cab For Cutie - We Looked Like Giants Chords & Tabs

 

We Looked Like Giants Chords & Tabs

Death Cab For Cutie Chords & Tabs

Version: 1 Type: Chords 0 ratings
1 star 2 stars 3 stars 4 stars 5 stars
comments

We Looked Like Giants Chords

   
Its not qutie in order, but it should get you to where the rest isnt a problem.
-Mat B.

Picked Part (Intro + Other Times)

|-2-----------2-----------2-----------0-2-0-2---|
|-3-3-2-------3-3-2-------3-5-3-5-3-5-2-------3-|
|-4-----4-2-4-4-----4-2-4-2-----------2---------|
|-4-----------4-----------0-----------2---------|
|-2-----------2-----------------------0---------|
|-----------------------------------------------|

  Bm  D  A  F#m
|-2---5--5--2---|
|-3---7--5--2---|
|-4---7--6--2---|
|-4---7--7--4---|
|-2---5--7--4---|
|--------5--2---|


Bm
God bless the daylight, the sugary smell of springtime
D                              A
remembering when you were mine in a still suburban town
[ Tab from: http://www.guitartabs.cc/tabs/d/death_cab_for_cutie/we_looked_like_giants_crd.html ]
Bm
When every Thursday, I'd brave those mountain passes
D                                     A
and you'd skip your early classes and we'd learn how our bodies worked

Bm
God damn the black night, with all its foul temptations
D                               A
I've become what I always hated when I was with you then

Bm
We looked like giants in the back of my grey sub-compact
A                        A   
fumbling to make contact as the others slept inside

Bm                 G 
and together there in a shroud of frost, the mountain air
A
began to pass through every pane of weathered glass
Bm                    G                      A         F#m
and I held you closer than anyone would ever get
Comments