Death Cab For Cutie - Title And Registration Chords & Tabs

 

Title And Registration Chords & Tabs

Death Cab For Cutie Chords & Tabs

Version: 7 Type: Tab 0 ratings
1 star 2 stars 3 stars 4 stars 5 stars
comments

Title And Registration Tab

Death Cab for Cutie - Title and Registration
Tabbed by Veritas7

* Capo on 2nd Fret - All tab relative to capo

Intro/Verses:
E|-------------------------------------------------------------------------------------------------|
B|---------------------0--------------------------------0--------------------0--3--0--1--0---------|
G|------0-----0-----2-----2--0-----0-----0-----0-----2-----2--0-----0--------0--------------2--0---|
D|---2-----2-----2--------------2-----------0-----0--------------0--------2--2---------------------|
A|------------------------------------3--------------------------------3-----3---------------------|
E|-------------------------------------------------------------------------------------------------|
[ Tab from: http://www.guitartabs.cc/tabs/d/death_cab_for_cutie/title_and_registration_tab_ver_7.html ]
E|-------------------------------------------------------------------------------------------------|
B|---------------------0--------------------------------0--------------------0---------------------|
G|------0-----0-----2-----2--0-----0-----0-----0-----2-----2--0-----0--------0---------------------|
D|---2-----2-----2--------------2-----------0-----0--------------0--------2--2---------------------|
A|------------------------------------3--------------------------------3-----3---------------------|
E|-------------------------------------------------------------------------------------------------|

Chorus:
E|-----------------------------------------------------------|
B|--------0--------0-----------0--------0-----------0-----1--|
G|-----0-----0--------0-----0-----0--------0-----0-----0-----|
D|-----------------------------------------------------------|
A|--3-----------3-----------------------------0--------------|
E|-----------------------3-----------3-----------------------|
Comments