Death Cab For Cutie - Title And Registration Chords & Tabs

 

Title And Registration Chords & Tabs

Death Cab For Cutie Chords & Tabs

Version: 6 Type: Tab 0 ratings
1 star 2 stars 3 stars 4 stars 5 stars
comments

Title And Registration Tab

   
----------------------------------------------------------------------------
               Title And Registration - Death Cab For Cutie
----------------------------------------------------------------------------
Tabbed by: Jeremie
Email: jimmyeatballs@hotmail.com

Tuning: Standard E


Intro/Verse:

e|-------------------------------------|
B|---------------------2---------------|
G|-------2----2-----4----4--2----------|
D|----4----4-----4--------------4--0---|
A|-------------------------------------|
E|-------------------------------------|
[ Tab from: http://www.guitartabs.cc/tabs/d/death_cab_for_cutie/title_and_registration_tab_ver_6.html ]
e|-------------------------------------------2~-----------------------|
B|--------------------2----------------------2~----5--2--3--2---------|
G|-------2----2----4-----4--2-----2----------2~----------------4--2---|
D|----2----2----2--------------4------0--0---2~-----------------------|
A|--------------------------------------------------------------------|
E|--------------------------------------------------------------------|


Chorus:

e|-------------------------------------------------------|
B|--------2----2------------2----2------------2----3-----|
G|------2----2---2--------2----2---2--------2---2--------|
D|----0------------0-------------------------------------|
A|----------------------0------------0----2--------------|
E|-------------------------------------------------------|



Bridge:

e|-----------------------------------------------------|
B|--------2-------2------------2----3-------2----3-----|
G|------2---2---2---2--------2---2--------2---2--------|
D|-----------------------------------------------------|
A|----0---------------0----2------------2--------------|
E|-----------------------------------------------------|




| /  slide up
| \  slide down
| h  hammer-on
| p  pull-off
| ~  vibrato
| +  harmonic
| x  Mute note
===============================================================================
Comments