Death Cab For Cutie - Title And Registration Chords & Tabs

 

Title And Registration Chords & Tabs

Death Cab For Cutie Chords & Tabs

Version: 5 Type: Tab 0 ratings
1 star 2 stars 3 stars 4 stars 5 stars
comments

Title And Registration Tab

----------------------------------------------------------|
-----------------------------------------2--2-5-2-3-2-----|
-------------6------------------6--------2-----------4-2--|
-------7-7--9--9-7----7----7-7-9--9-7----4----------------|
----7-9-9-9-------9-9---9-7-7-7-------5--5----------------|
----------------------------------------------------------|
Snapping noises, this can be done by snapping fingers
----------------------------------------------------------|
-----------------------------------------2--2-5-2-3-2-----|
-------------6------------------6--------2-----------4-2--|
-------7-7--9--9-7----7----7-7-9--9-7----4----------------|
----7-9-9-9-------9-9---9-7-7-7-------5--5----------------|
----------------------------------------------------------|

This verse tab is perfect, i added a few notes and pickups to another tab

DCFC is awesome
[ Tab from: http://www.guitartabs.cc/tabs/d/death_cab_for_cutie/title_and_registration_tab_ver_5.html ]
Comments