Death Cab For Cutie - Title And Registration Chords & Tabs

 

Title And Registration Chords & Tabs

Death Cab For Cutie Chords & Tabs

Version: 1 Type: Tab 3 ratings
1 star 2 stars 3 stars 4 stars 5 stars
comments

Title And Registration Tab

Death Cab for Cutie
"Title and Registration"
tabbed by Logan D. 

Capo 2


intro/verse


e-------------------------------------------------------------
b----------------------------------------------0--3-0-1-0-----
g----------------------------------------------0----------2-0-
d--5--5--7-9--7-5---------5--5--7-9-7-5-5------2--------------
a-7--7-7--7-7--7-7---3-3/5--5-5--5-5-5-----3-3-3--------------
e-------------------------------------------------------------

[ Tab from: http://www.guitartabs.cc/tabs/d/death_cab_for_cutie/title_and_registration_tab.html ]
e-------------------------------------------------------------
b----------------------------------------------0--------------
g----------------------------------------------0--------------
d--5--5--7-9--7-5--------5--5---7-9-7-5-5------2--0-----------
a-7--7-7--7-7--7-7----3h5--5--5--5-5-5-----3-3-3--------------
e-------------------------------------------------------------


chorus


e-----------------------------
b---0--0----0--0----0--1------
g--0-0--0--0-0--0--0-0--------
d-----------------------------
a-3---3-----------0-----------
e---------3---3---------------


bridge (he does a lot of pauses so listen to the song)


repeat


e-------------------------
b---0--0-----1----1-------
g--0--0----0----0---------
d---------0---------------
a--------------0----------
e-0--0---3----------------


outro


repeat


e-----------------------
b---0--0-----0--0-----0-
g--0--0--0--0--0--0--0--
d-----------------------
a-3--3--3--3--3--3--3---
e-----------------------
Comments