Death Cab For Cutie - Tiny Vessels Chords & Tabs

 

Tiny Vessels Chords & Tabs

Death Cab For Cutie Chords & Tabs

Version: 4 Type: Tab

Tiny Vessels Tab

-------------------------------------------------------------------------------
			  Tiny Vessels - Death Cab For Cutie
-------------------------------------------------------------------------------
Tabbed by:Mike aka Mike the Great
Email: I'm not giving you my e-mail freak

Tuning:Standard

When you play both this parts together it sounds really sweet, but i wanted to know to 
both so i tabbed it out for you lazy asses......enjoy!

Guitar 1
e|---------------------------------------------------------------------------|
B|---------------------------------------------------------------------------|
G|---------------------------------------------------------------------------|
D|-------7---9---11---------7---9---11-------4--4-7-4---4--------------------|
A|---9-9---9---9---------9-9--9--9----------7--7------7----------------------|
E|---------------------------------------------------------------------------|
[ Tab from: http://www.guitartabs.cc/tabs/d/death_cab_for_cutie/tiny_vessels_tab_ver_4.html ]
e|---------------------------------------------------------------------------|
B|---------------------------------------------------------------------------|
G|---------------------------------------------------------------------------|
D|-----4---4---4---4---------repeat this-------------------------------------|
A|---5---5---4---2-----------------------------------------------------------|
E|---------------------------------------------------------------------------|


Guitar 2
e|---------------------------------------------------------------------------|
B|---------------------------------------------------------------------------|
G|--------9-----9-----------6---6-------6----7---6-------6-------6------x2---|
D|----7-7-----7-------7-7-7---7---7-7-7---7----7---7-7-7---7-7-7---7---------|
A|---------------------------------------------------------------------------|
E|---------------------------------------------------------------------------|