Death Cab For Cutie - Tiny Vessels Chords & Tabs

 

Tiny Vessels Chords & Tabs

Death Cab For Cutie Chords & Tabs

Version: 2 Type: Tab 0 ratings
1 star 2 stars 3 stars 4 stars 5 stars
comments

Tiny Vessels Tab

----------------------------------------------------------------------------
	           Tiny Vessels - Death Cab for Cutie
----------------------------------------------------------------------------

Tuning: Standard - Capo 2nd Fret (Tab in relation to capo)


Verse 1:
[ Tab from: http://www.guitartabs.cc/tabs/d/death_cab_for_cutie/tiny_vessels_tab_ver_2.html ]
e|-------------------------------|
B|-------------------------------|
G|-------------------------------|
D|-------5---7---9---------------|  (x2)           \
A|---7-7---7---7---7-------------|                  \
E|-------------------------------|                   Play these two together
                                                     6 times for verse 1
e|----------------------------------------------|   /
B|----------------------------------------------|  /
G|----------------------------------------------|
D|-----2---2-5-2---2------2---2---2---2---------|
A|---5---5-------5------3---3---2---0-----------|
E|----------------------------------------------|


Chorus:

e|---------------------------------------------------|
B|---------------------------------------------------|
G|----00000000-00000000------------------------------|
D|----22222222-22222222-22222222---------------------|   (x4)
A|----33333333-44444444-22222222-----------2-2-------|
E|----------------------00000000-0-2-2-3-3-----------|

e|----------------------------|
B|----33333333-3~-------------|
G|----00000000-0~-------------|
D|----44444444-4~-------------|
A|----55555555-5~-------------|
E|----------------------------|

Verse 2 is the same riff as verse 1. Play it five times and then it starts doing
little variations that I'm not going to tab. It's not hard to figure out though.
Or you can just keep playing the main riff until it ends.
Comments