Death Cab For Cutie - The Sound Of Settling Chords & Tabs

 

The Sound Of Settling Chords & Tabs

Death Cab For Cutie Chords & Tabs

Version: 2 Type: Tab 0 ratings
1 star 2 stars 3 stars 4 stars 5 stars
comments

The Sound Of Settling Tab

Death Cab for Cutie
"Sound of Settling"

Capo 2

Verse

e----------------------------------|
b----------------------------------|
g----------------------------------|
d-2--2--4--6-----------------------|
a-4--4--6--7---4---4---7--7--------|
e--0--0--0--0--2-2--2--5-5--5------|

Right before chorus end like this:

e------|
b------|
g------|
d---7--|
a--7-7-|
e-5----|

Chorus (not tabbed out for rhythm, but it's easy to hear)
[ Tab from: http://www.guitartabs.cc/tabs/d/death_cab_for_cutie/the_sound_of_settling_tab_ver_2.html ]
e-----------------------------------------------------|
b-----------------------------------------------------|
g-13--11-8--9---13--11-8--6---9--8--4--2---9--8--4--2-|
d-x---x--x--x---x---x--x--x---x--x--x--x---x--x--x--x-|
a-11--9--6--7---11--9--6--4---7--6--2--0---7--6--2--0-|
e-----------------------------------------------------|

Interlude - I'm not really sure about this part but it sounds like you could play something like this...

e------------------------|
b------------------------|
g--9-9--11-13--9-9-8-4---|
d--xx--x--x---x-x-x-x---|
a--77--9--11--7-7-6-2---|
e------------------------|

They go back into the interlude near the end of the chorus.
Comments