Death Cab For Cutie - The New Year Chords & Tabs

 

The New Year Chords & Tabs

Death Cab For Cutie Chords & Tabs

Version: 1 Type: Tab 0 ratings
1 star 2 stars 3 stars 4 stars 5 stars
comments

The New Year Tab

   
Death Cab for Cutie
"The New Year"
tabbed by Logan D.

Standard tuning (On Transatlanticism they play it on Capo 1, but they leave it off live ) 

intro

e--0-0-----------0-0---------------
b--0-0---5---5---0-0---------------
g--7-7----7---7--x-x---------------
d--7-7--0---0----4-4---------------
a--5-5-----------5-5---------------
e----------------7-7---------------

e--0-0-----------0-0----0----------
b--0-0---5---5---0-0----5/7--7/5-3-
g--7-7----7---7--x-x---------------
d--7-7--0---0----4-4---------------
a--5-5-----------5-5---------------
e----------------7-7---------------

e--0-0-----------0-0----0-0--------
b--0-0---5---5---0-0----5-5/7/5-0--
g--7-7----7---7--x-x---------------
d--7-7--0---0----4-4---------------
a--5-5-----------5-5---------------
e----------------7-7---------------

e--0-0-----------0-0----0----------
b--0-0---5---5---0-0----5/7--7/5-3-
g--7-7----7---7--x-x---------------
d--7-7--0---0----4-4---------------
a--5-5-----------5-5---------------
e----------------7-7---------------

verse

e----------------0-0--------------
b--------5---5---0-0--------------
g--7-7----7---7--x-x--------------
d--7-7--0---0----4-4--------------
a--5-5-----------5-5--------------
e----------------7-7--------------

e----------------0-0---0----------
b--------5---5---0-0---5/7--7/5-3-
g--7-7----7---7--x-x--------------
d--7-7--0---0----4-4--------------
a--5-5-----------5-5--------------
e----------------7-7--------------

e----------------0-0---0-0--------
b--------5---5---0-0---5-5/7/5-0--
g--7-7----7---7--x-x--------------
d--7-7--0---0----4-4--------------
a--5-5-----------5-5--------------
e----------------7-7--------------

e----------------0-0-------------
b--------5---5---0-0-------------
g--7-7----7---7--x-x-------------
d--7-7--0---0----4-4-------------
a--5-5-----------5-5-------------
e----------------7-7-------------

in the distance...

2x

e----------------------------------
b----3-----------------------------
g----0-------2------------6---7/---
d---0---------4----0--7------------
a------2-0------4-4--4-4-4-4-4-----
e--3--3---3----5----5---5---5------

verse 2
[ Tab from: http://www.guitartabs.cc/tabs/d/death_cab_for_cutie/the_new_year_tab.html ]
e----------------0-0--------------
b--------5---5---0-0--------------
g--7-7----7---7--x-x--------------
d--7-7--0---0----4-4--------------
a--5-5-----------5-5--------------
e----------------7-7--------------

e----------------0-0----5/7/5/0---
b--------5---5---0-0--------------
g--7-7----7---7--x-x--------------
d--7-7--0---0----4-4--------------
a--5-5-----------5-5--------------
e----------------7-7--------------

e----------------0-0---0----------
b--------5---5---0-0---5/7--7/5-3-
g--7-7----7---7--x-x--------------
d--7-7--0---0----4-4--------------
a--5-5-----------5-5--------------
e----------------7-7--------------

e--2-2--------------------------
b--3-3--------------------------
g--2-2--------------------------
d--0-0--------------------------
a-------------------------------
e-------------------------------

so everybody put your best suit or dress on...

Walla plays G and A

Gibbard comes in

e----------------------------------
b----3-----------------------------
g----0-------2------------6---7/---
d---0---------4----0--7------------
a------2-0------4-4--4-4-4-4-4-----
e--3--3---3----5----5---5---5------

riff 2

e----------------------------------
b----3------------------7--5-------
g----0------2---------0-----0------
d---0---------4---2/7----7---7-----
a------2-0------0------------------
e--3--3---3------------------------

so this is the new year (4x)

e----------------0-0--------------
b--------5---5---0-0--------------
g--7-7----7---7--x-x---------------
d--7-7--0---0----4-4---------------
a--5-5-----------5-5---------------
e----------------7-7---------------

e----------------0-0---0----------
b--------5---5---0-0---5/7--7/5-3-
g--7-7----7---7--x-x---------------
d--7-7--0---0----4-4---------------
a--5-5-----------5-5---------------
e----------------7-7---------------

e----------------0-0--------------
b--------5---5---0-0--7/10--------
g--7-7----7---7--x-x--------9-----
d--7-7--0---0----4-4--------------
a--5-5-----------5-5--------------
e----------------7-7--------------

e----------------0-0---0----------
b--------5---5---0-0---5/7-0------
g--7-7----7---7--x-x--------------
d--7-7--0---0----4-4--------------
a--5-5-----------5-5--------------
e----------------7-7--------------

end on A2

e-0
b-0
g-2
d-2
a-0
e-x
Comments