Death Cab For Cutie - Technicolor Girls Chords & Tabs

 

Technicolor Girls Chords & Tabs

Death Cab For Cutie Chords & Tabs

Version: 1 Type: Tab 0 ratings
1 star 2 stars 3 stars 4 stars 5 stars
comments

Technicolor Girls Tab

fun and easy two guitar song to play.  enjoy

guitar 1


e-----------------------------------------------------------|
b------------------------------7--7---10-10-----------------|
g---6--6--6--6---6--6--6--6---9--9---9--9-------------------|
d--7--7--7--7---7--7--7--7---0--0---------------------------|
a----------------------------------9--9---------------------|
e-5--5--5--5---7--7--7--7-----------------------------------|


guitar 2


e------------5----------------------------------------------|
b---5--7--9-------------------------------------------------|
g--6--6--6--6-----------------------------------------------|
d-7--7--7--7------------------------------------------------|
a-----------------------------------------------------------|
c-----------------------------------------------------------|


chorus


e--------------------------------------------------------|
b--------------------------------------------------------|
g---6--6--6--6---6--6--6--6------------------------------|
d--7--7--7--7---7--7--7--7--7----------------------------|
a--------------------------------------------------------|
e-0--0--7--7---5--5--5--5--------------------------------|


chorus 2

[ Tab from: http://www.guitartabs.cc/tabs/d/death_cab_for_cutie/technicolor_girls_tab.html ]
e-------------------------------------------------------|
b-------------------------------------------------------|
g---6--6--6--6---6--6--6--6--6--6--6--7--6--6--6--------|
d--7--7--7--7---7--7--7--7--7--7--7--7--7--7---7--------|
a-----------------------------------5-------------------|
e-0--0--7--7---5--5--5--5--0--0--7-----5--5----5--------|


bridge


guitar 2


e----------------------------------------------|
b----------------------------------------------|
g----------------------------------------------|
d----------------------------------------------|
a----------------------------------------------|
c-9-8-6-1-2--4-6-2-----------------------------|


Technicolor girls are always on the phone
talking about their homes
and the conversations continue endlessly.

Technicolor boys, transistor radios
blasting their treble tones
and the arguments are disputed after school,
in the parking lot as the teachers bend the rules.

Patiently you waited for a courting boy's embrace,
then everyone would know.
But the letter jacket wasn't yours to own
and it proves to be on temporary loan.

And as they all grow older the truth will be understood,
cuz we never turn out the way we thought we would.
Comments