Death Cab For Cutie - Styrofoam Plates Chords & Tabs

 

Styrofoam Plates Chords & Tabs

Death Cab For Cutie Chords & Tabs

Version: 1 Type: Tab 0 ratings
1 star 2 stars 3 stars 4 stars 5 stars
comments

Styrofoam Plates Tab

Band: Death Cab For Cutie 
Song: Styrofoam Plates 

This is here for Elizabeth G.L. Thanks for getting me into such a great band. I'll doubt
you'll learn to play this, but I'd love to have the time to teach you. With Love and Squalor, Stewart.
Stilton, England.
[ Tab from: http://www.guitartabs.cc/tabs/d/death_cab_for_cutie/styrofoam_plates_tab.html ]
verse: 
e||----------|----------|------5--4-|---1~~~~~~~|---0~~~~~~~|| 
b||-----0----|--------0-|-----------|---1~~~~~~~|---0~~~~~~~|| 
g||----------|--2-------|---4-------|---2~~~~~~~|---1~~~~~~~||o 
d||--2-----2-|-----0----|-----------|-----------|-----------||o 
a||0---------|----------|-----------|-----------|-----------|| 
e||----------|2---------|0----------|-----------|-----------|| 

As the drums come in, guitar 2 plays: 
d||--7~~~~~|-4~~~~~~|-2~~~~~~~|-3~~~~~~|-2~~~~~~|| 
(with a tremolo effect) 


bridge: 
e||---------------------------------------------------|| 
b||---------5---2-------------------------------------|| 
g||-----1---------------4---1--------------------1h2--||o 
d||-----------------------------------2---1-----------||o 
a||-0-----0---0-----0-----0-----0------0----0---------|| 
e||---------------------------------------------------||
Comments