Death Cab For Cutie - Steadier Footing Chords & Tabs

 

Steadier Footing Chords & Tabs

Death Cab For Cutie Chords & Tabs

Version: 2 Type: Tab 0 ratings
1 star 2 stars 3 stars 4 stars 5 stars
comments

Steadier Footing Tab

tab for 'Steadier Footing' by 'Death Cab For Cutie'
tabbed by David Gallagher

e ----------------------------------------------------------------|
b -4-------------------------------0---------------4--------------|
g ----------------------------------------------------------------|
d ------------------6---------------------------------------------|
a -2-----------------------------------------------2--------------|
e ------------------4--------------0------------------------------|
its gotten late and now i want to be alone . . .

e ----------------------------------------------------------------|
b -4----------------5--------------5---------------8--------------|
g ----------------------------------------------------------------|
d -1----------------2---------------------------------------------|
a ---------------------------------4---------------7--------------|
e ----------------------------------------------------------------|
sit on the front porch watching the drunks stumble forth into ..
[ Tab from: http://www.guitartabs.cc/tabs/d/death_cab_for_cutie/steadier_footing_tab_ver_2.html ]
e -------0-------0-----------------------0-------0-----------------|
b -----------------------2-0-----------------------------2-0-------|
g -----------------------------------------------------------------|
d -----6-------6-------4---------------6-------6-------4-----------|
a -2/4-----4-7-----7-2-------------2/4-----4-7-----7-2-------------|
e -----------------------------------------------------------------|
the people we've met in the last five years and will we remember them . .
.

Its gotten late and now i want to be alone
all of our friends have left they all have gone home
but now sit on the front porch
watching the drunks stumble forth
into the night

gave me a heart attack I did not see you there
thought you had dissapeared so early away from here
this is the chance i never got to make a move
but we just talked about
the people we've met in the last five years
and will we remember them in ten more

i let you bum a smoke you quit this winter passed
i tried twice before but like this it just would not last
Comments