Death Cab For Cutie - Soul Meets Body Chords & Tabs

 

Soul Meets Body Chords & Tabs

Death Cab For Cutie Chords & Tabs

Version: 1 Type: Tab 0 ratings
1 star 2 stars 3 stars 4 stars 5 stars
comments

Soul Meets Body Tab

Band : Death Cab For Cutie
Song : Soul Meets Body
Album: Plans
Tabbed By: Calum (afirock74@hotmail.com)
Capo 5th fret...:Tuning (low to high) = E, A, D, G, B, E 

x   - Palm Mute
b   - Bend
b~  - Bend Up Then Down
h   - Hammer-On Directly After Note Before

Intro/Verse/Outro:
e|-7-7-5-5-7-7-5-5---3-3-3-3-3-3-3-3-|
B|-8-8-8-8-8-8-8-8--3-3-3-3-3-3-3-3--|
G|-0-0-0-0-0-0-0-0-------------------|
D|-0-0-0-0-0-0-0-0-------------------|
A|-----------------------------------|
E|-----------------------------------|
Verse:
e|-0-0-0-0-0-0-0-0-0--0-0-0-0-0-0-0-0-0--|
B|-1-1-1-1-1-1-1-1-1--1-1-1-1-1-1-1-1-1--|
G|-2-2-2-2-2-2-2-2-2--0-0-0-0-0-0-0-0-0--|
D|-2-2-2-2-2-2-2-2-2--2-2-2-2-2-2-2-2-2--|
A|-0-0-0-0-0-0-0-0-0--3-3-3-3-3-3-3-3-3--|
E|--------------------3-3-3-3-3-3-3-3-3--|

Pre-Chorus:
e|-3-3-3-3-3-3-3-3-3--|
B|-3-3-3-3-3-3-3-3-3--|
G|-0-0-0-0-0-0-0-0-0--|
D|-0-0-0-0-0-0-0-0-0--|
A|-2-2-2-2-2-2-2-2-2--| 2x
E|-3-3-3-3-3-3-3-3-3--|
[ Tab from: http://www.guitartabs.cc/tabs/d/death_cab_for_cutie/soul_meets_body_tab.html ]
Chorus:
e|----------------------------------------------------------------------|
B|----------------------------------------------------------------------|
G|-----0-----0----------------0-----0----------------0------------------|
D|----2-----2--0-0-0-0-0-----2-----2--0-0-0-0-0-----2------0-0-0-0-0-0--|
A|-0-0---3-3---5-5-5-5-5--0-0---3-3---5-5-5-5-5--0-0------3--5-5-5-5-5--|
E|-------------3-3-3-3-3--------------3-3-3-3-3--------1-1---3-3-3-3-3--|


e|----------------------------|
B|----------------------------|
G|----------------------------|
D|-2-2---------0-0-0-0-0-0-0--|
A|-0-0-3-3-3-3-4-4-3-3-3-3-3--|
E|-----0-0-1-1-4-4-4-4-4-4-4--|

Bridge:
e|-0-0-0-0--0-0-0-0-0-|-0-0-0-0---|-3--|
B|-1-1-1-1--1-1-1-1-1-|-1-1-1-1---|-3--|
G|-2-2-2-2--2-2-2-2-2-|-0-0-0-0---|-0--|
D|-2-2-2-2--2-2-2-2-2-|-2-2-2-2---|-0--|
A|-0-0-0-0--0-0-0-0-0-|-3-3-3-3---|-2--|
E|--------------------|-3-3-3-3---|-3--|

Last Chorus:
e|--------------|
B|-10-----------|
G|---12---10-9--|
D|--------------|
A|--------------|
E|--------------|
Comments