Death Cab For Cutie - Photobooth Chords & Tabs

 

Photobooth Chords & Tabs

Death Cab For Cutie Chords & Tabs

Version: 1 Type: Tab 0 ratings
1 star 2 stars 3 stars 4 stars 5 stars
comments

Photobooth Tab

   
Death Cab For Cutie - Photobooth

verse riff
e-----------------------------------|
b-----------------------------------|
g-----------------------------------|
d--------0-0-------0-0--------------|
a-------------------------------2-2-|
e--3-3-------3-3-------0-0----------|


e-------------------------------------------------------|
b--0-0-------------------0-0------------------1---------|
g--------0-0-------2-2-------0-0-------0-------0----0---|
d-------------0-0---------------------2----2-------2----|
a------------------------------------3------------------|
e-------------------------------------------------------|

[ Tab from: http://www.guitartabs.cc/tabs/d/death_cab_for_cutie/photobooth_tab.html ]
this is played over:
I remember when the days were long
and the nights when the living room was on the lawn
constant quarrelling and childish fits
and our clothes in a pile on the ottoman
all the slander and double speak
were only foolish attempts to show you did not mean anything
but the blatant proof was your lips touching mine in the photobooth

chorus:

Am C
And as the summer's ending
Em D C
The cold air will brush your hard heart away
Am C
And you were so condescending

The verse riff starts playing again here:

Em G D C
And this is all that's left
Em G D C
Scraping paper to document
Em G D C
I've packed a change of clothes and it's time to move on


Then it just repeats verse/chorus for the rest of the song.
Comments