Death Cab For Cutie - Lack Of Color Chords & Tabs

 

Lack Of Color Chords & Tabs

Death Cab For Cutie Chords & Tabs

Version: 6 Type: Tab

Lack Of Color Tab

-------------------------------------------------------------------------------
                 Lack of Color Tab - Death Cab for Cutie
-------------------------------------------------------------------------------
from the album Transatlanticism

Tabbed by: Brontosaurus
Email:myopicman@hotmail.com

tuning:
tune into drop D, then put a capo on the 1st fret. Your strings play like
this now, when open:
F----
C----
G#---
D#---
A#---
D#---


intro:

F--------------------------------------------------------------------|
C--------------------------------------------------------------------|
G#-------------------------------------------------------------------|
D#---5---5---5---5---5---5-----------5---5---5---5---5---5---3---3---|
A#---------------------------6---6-----------------------------------|
D#-----0---0---0---0---0---0---0---0---0---0---0---0---0---0---0---0-|


F--------------------------------------------------------------------|
C----4---4---4---4---4---4---------------------------4---4-----------|
G#---------------------------3---3---0---0---0---0-----------3---3---|
D#-------------------------------------------------------------------|
A#-----3---3---3---3---3---3---3---3---3---3---3---3---3---3---3---3-|
D#-------------------------------------------------------------------|

repeat 8x


chorus:

F-------------------------------------------|
C------------------3------------------3-----|
G#-----------------3------------------------|
D#-----------------3------------------3-----|
A#-----------------0------------------2-----|
D#------------------------------------------|
reaching for the phone, To call at 7:03
[ Tab from: http://www.guitartabs.cc/tabs/d/death_cab_for_cutie/lack_of_color_tab_ver_6.html ]
F------------------------------------------------------|
C---------------4--------------4-----------------------|
G#--------------5--------------5-------------------5---|
D#--------------5--------------5-------------------0---|
A#--------------3--------------0-------------------6---|
D#-------------------------------------------------6---|
and on your machine I slur a plea for you to come home

F----------------------------------------------------|
C----3-----------------------3-----------------------|
G#---3-----------------------------------------------|
D#---3-----------------------3-----------------------|
A#---0-----------------------2-----------------------|
D#---------------------------------------------------|
     ...but I know it's too late, and  I should have

F-------------------------------|
C----4-----------4--------------|
G#---5-----------3----------5---|
D#---5-----------0----------0---| repeat x4
A#---3-----------0----------6---|
D#--------------------------6---|
    given you a reason to stay


outro:

F--------------------------------------------------------------------|
C--------------------------------------------------------------------|
G#-------------------------------------------------------------------|
D#---5---5---5---5---5---5-----------5---5---5---5---5---5---3---3---|
A#---------------------------6---6-----------------------------------|
D#-----0---0---0---0---0---0---0---0---0---0---0---0---0---0---0---0-|


F--------------------------------------------------------------------|
C----4---4---4---4---4---4---------------------------4---4-----------|
G#---------------------------3---3---0---0---0---0-----------3---3---|
D#-------------------------------------------------------------------|
A#-----3---3---3---3---3---3---3---3---3---3---3---3---3---3---3---3-|
D#-------------------------------------------------------------------|

repeat x2