Death Cab For Cutie - Lack Of Color Chords & Tabs

 

Lack Of Color Chords & Tabs

Death Cab For Cutie Chords & Tabs

Version: 2 Type: Tab 0 ratings
1 star 2 stars 3 stars 4 stars 5 stars
comments

Lack Of Color Tab

verses:
D|---6-6-6-6-6-\2-2---6-6-6-6-6-4-4-4-|
A|--7-7---7---7----2/7-7---7---7---7--|
B|--5-5-5-5-5---------------5-5-------|
G|--------------3-3-------------3-3---|
D|------------------7-7-7-7---------6-|
A|-4-4---4---4-----4---4---4---4---4--|
[ Tab from: http://www.guitartabs.cc/tabs/d/death_cab_for_cutie/lack_of_color_tab_ver_2.html ]
I'm reaching for the phone, to call at 7:03. and on your 
                    |------------------------|
                    |--4------------------4--|
                    |------------------------|
                    |--4------------------4--|
                    |--2------------------3--|
                    |------------------------|
machine I slur a plea for you to come home                but i know its too
|--------------------------------------------------------|
|--5---------------9----------------------------------4--|
|--6---------------8-------------------6-----------------|
|--6---------------9-------------------7--------------4--|
|--4---------------7-------------------7--------------2--|
|--------------------------------------5-----------------|

  late. I should've _ _>given you a reason to stay
|-------------------_r_>---------------------------|
|--4----------------_e_>-5-----------9-------------|
|-------------------_p_>-6-----------8----------6--|
|--4----------------_e_>-6-----------9----------7--|
|--3----------------_a_>-4-----------7----------7--|
|-------------------_t_>------------------------5--|
Comments