Death Cab For Cutie - Crooked Teeth Chords & Tabs

 

Crooked Teeth Chords & Tabs

Death Cab For Cutie Chords & Tabs

Version: 1 Type: Tab 0 ratings
1 star 2 stars 3 stars 4 stars 5 stars
comments

Crooked Teeth Tab

   
CROOKED TEETH

Capo 2nd fret............................Tuning (low to high) = E, A, D, G, B, E 

(All fret numbers relative to capo. Actual frets and chord names are a whole-step higher.)

Verse chords: Em7 - 022030 A7 - x02020 C - x35050 G - 35500x
Pre-Chorus Chords: Em - 075000 Em7maj - 065000 G6/E or Em7 - 055000 A7 - x02020
Pre-Chorus Chords (alt.): Em - 022000 Em7maj - 021000 G6/E or Em7 - 020000 A7 - x02020
Chorus Chords: C - 33555x G - 355433 D - 55777x
Bridge Chords: A7 - x02020 B7 - x24242 Em7 - 022003 or 022033


Verse: [Em7] [A7] [C] [G] } x 4 { (Gtr. Riff 1) [Em7] [A7] [C] [G] } x 3 (Gtr. Riff 2) [Em7] [A7] [C] [G] 
Pre-Chorus: (Gtr. Fill 1) [Em] [Em7Maj] [G6/E] [Em7Maj] [Em] [Em7Maj] [G6/E] [A7]
Chorus: [C] [G] [D] } x 4
(Bass Fill) [Em7] [A7] [C] [G] (Gtr. Riff 1) [Em7] [A7] [C] [G]
Verse: [Em7] [A7] [C] [G] } x 4 { (Gtr. Riff 1) [Em7] [A7] [C] [G] } x 3 (Gtr. Riff 2) [Em7] [A7] [C] [G]
Pre-Chorus: (Gtr. Fill 2) [Em] [Em7Maj] [G6/E] [Em7Maj] [Em] [Em7Maj] [A7]
Chorus: [C] [G] [D] } x 4
Bridge: [A7] [B7] [Em7] [A7] } x 2
Solo: [C] [G] [D] } x 4
Chorus: [C] [G] [D] } x 8


(All guitar parts are relative to capo, so they are shown 2 frets lower than actual pitch.)

Gtr. Riff 1
E------------------------------------|------------------------------------|
B------------------------------------|------------------------------------|
G------------------------------------|------------------------------------|
D-----------------------------2---1--|-0---0------------------------------|
A------------2-------0---0----------|-------------------------------------|
E---0---0-------0-------------------|----------0---2---3---3---2---1------|

[ Tab from: http://www.guitartabs.cc/tabs/d/death_cab_for_cutie/crooked_teeth_tab.html ]
Gtr. Riff 2
E-------------------------------------|------------------------------------|
B-------------------------------------|------------------------------------|
G-------------------------------------|------------------------------------|
D-------------------------------------|------------------------------------|
A------------2-------0---0---0---2---|--3---3---2---0----------------------|
E---0---0-------0--------------------|--------------------3---3------------|


Gtr. Fill 1 (played during Pre-Chorus)
E----------------------------------|--------------------------------|-------------------------------|
B---5-----5-------4-------4--------|--3------3------4------4-------|--5-----5------4------4---------|
G------4------4-------4-------4----|------4------4------4------4---|-----4-----4-------4------4-----|
D----------------------------------|--------------------------------|-------------------------------|
A----------------------------------|--------------------------------|-------------------------------|
E----------------------------------|--------------------------------|-------------------------------|

E----------------------------------|
B---3-----3------2--------2--------|
G------4-----4--------2-------2----|
D----------------------------------|
A----------------------------------|
E----------------------------------|

Gtr. Fill 2 (played during Pre-Chorus)
E-----------------------------------|--------------------------------|-------------------------------|
B----5-----5-------4-------4--------|--3------3------4------4--------|--5-----5------4------4--------|
G-------4------4-------4-------4----|------4------4------4------4----|-----4-----4-------4------4----|
D-----------------------------------|--------------------------------|-------------------------------|
A-----------------------------------|--------------------------------|-------------------------------|
E-----------------------------------|--------------------------------|-------------------------------|

E----------------------------------|
B---2------2------2-------2--------|
G-------2------2-------2------2----|
D----------------------------------|
A----------------------------------|
E----------------------------------|

Bass Riff (played after first chorus)
G-----------------4------------------|------------------------------------|
D---4---4---7----------------4---3---|------------------------------------|
A---------------------2---2----------|-5---5---5---4----------------------|
E------------------------------------|---------------------5---5---4---3--|
Comments