Death Cab For Cutie - Crooked Teeth Chords & Tabs

 

Crooked Teeth Chords & Tabs

Death Cab For Cutie Chords & Tabs

Version: 2 Type: Bass Tab

Crooked Teeth Bass Tab

   
Song: Crooked Teeth
Artist: Death Cab For Cutie
Difficulty: Medium
Tabbed: MastaBassa (Thatís me)
Tuning: G-D-A-D

Verse 1 
G|----2-4-------------------------|
D|4-4---------4-3-0-0-0-----------|
A|--------2-2-----------3-0-0-----|
E|----------------------------4-3-|
[ Tab from: http://www.guitartabs.cc/tabs/d/death_cab_for_cutie/crooked_teeth_btab_ver_2.html ]
Verse 2
G|---2-----4-----4-----4---|
D|-4---4-3---3-2---2-1---1-|
A|-------------------------|
E|-------------------------|

Verse 3
G|--------------|
D|--------------|
A|-5555----7777-|
E|-----5555-----|


Order
Figure It Out! Its Not That Hard!


Good Luck Have Fun!
Any Questions, Comments, Complaints, Threats please E-Mail me at
MastaBassa72090@gmail.com