Death Cab For Cutie - Coney Island Chords & Tabs

 

Coney Island Chords & Tabs

Death Cab For Cutie Chords & Tabs

Version: 1 Type: Chords

Coney Island Chords

   
			     death cab for cutie - coney island
-------------------------------------------------------------------------------
Tabbed by: travis close
Email: travis.close@gmail.com

Tuning: standard


intro & verse (G and C)

e|------3-----3------------------------|
B|----0-----0-----0-1-----0-----0------|
G|--0-----0-----0----------------------| X 3
D|--------------------2-----2-----2----|
A|----------------------3-----3--------|
E|-------------------------------------|

and then the last is

[ Tab from: http://www.guitartabs.cc/tabs/d/death_cab_for_cutie/coney_island_crd.html ]
e|------3-----3------------------------|
B|----0-----0-----0-1-----0-----3------|
G|--0-----0-----0----------------------|
D|--------------------2-----2-----2----|
A|----------------------3-----3--------|
E|-------------------------------------|


chorus:

Em             G               C
everything was closed at coney island
Em             G          C
and i could not help from smiling

second chorus:

Em             G               C
everything was closed at coney island
Em             G          C
and i could not help from smiling
Em                     G            C
brookyln will fill the beach eventually
Em                G         C
and everyone will go except me