Death Cab For Cutie - Company Calls Chords & Tabs

 

Company Calls Chords & Tabs

Death Cab For Cutie Chords & Tabs

Version: 1 Type: Tab 0 ratings
1 star 2 stars 3 stars 4 stars 5 stars
comments

Company Calls Tab

   
-----------------------------------------------------------------------------
	             COMPANY CALLS - Death Cab for Cutie
-----------------------------------------------------------------------------

Tabbed by: Deborah Chan
Email: skemo_the_fish@hotmail.com

Tuning: Standard
[ Tab from: http://www.guitartabs.cc/tabs/d/death_cab_for_cutie/company_calls_tab.html ]
 Intro/Verse:
e|---|---------------------0-0-----------|-------------------0-0-----0-0-----|
B|---|-------------------------0-0-------|-------------------------------0---|
G|---|-o---------------------------2-2---|---------------------------------o-|
D|---|-o---2-2-----4-4-0-0---------------|---2-2-----4-4-0-0---------------o-|
A|---|-----------------4-4---------------|---------------4-4-----4-4---------|
E|-3-|---3-----5-5---------------------3-|-3-----5-5-------------------------|
 Chorus:
e|--5-------5-------------------------|-5-------5-------10------------------|
B|----7-7-7---7-7-7-----7-------------|---7-7-7---7-7-7---10-7--------------|
G|-o----------------7/9---9\7---------|------------------------9-6-6-6-7--o-|
D|-o--------------------------7-7-7-5-|-----------------------------------o-|
A|------------------------------------|-------------------------------------|
E|------------------------------------|-------------------------------------|

e|----------------------------|
B|----------------------------|
G|---------------7-7-6-6-9-9--|
D|-9-9-9-9-7-7-7-x-x-x-x-x-x--|
A|---------------5-5-4-4-7-7--|
E|----------------------------|

 Bridge:
e|-------------------|---------------0-|--------------------|
B|-----0--------0----|-----7---8---7---|-----7---10--10-----|
G|-o--19-------19\14-|-----7---7---7---|-----7-----11--11-o-|
D|-o-----------------|---0-------------|---0--------------o-|
A|-------------------|-9-----9---9-----|-9-----9------------|
E|-------------------|-----------------|--------------------|

e|------------------------------------|--------------------------------|
B|---10-12-10-------------------------|-10-12-10-----------------------|
G|-o----------11-11-11-11-11-11-11-11-|----------11-11-11-11-11\7-7-7--|
D|-o----------------------------------|--------------------------------|
A|------------------------------------|--------------------------------|
E|------------------------------------|--------------------------------|


| /  slide up
| \  slide down
| h  hammer-on
| p  pull-off
| ~  vibrato
| +  harmonic
| x  Mute note
=============================================================================
Comments