Death Cab For Cutie - Bad Reputation Chords & Tabs

 

Bad Reputation Chords & Tabs

Death Cab For Cutie Chords & Tabs

Version: 1 Type: Tab

Bad Reputation Tab

   
   SONG NAME - Band Name
-------------------------------------------------------------------------------
Tabbed by:
Email:

Tuning:standard

Verse

 i know ive got a bad reputation       and it isnt just talk talk talk

e|-0-0-0-0-0-0-0-0-0-0-0-0-0-0-0-0----3-3-3-3-3-3-3-3-3-3-3-3-3-3-3-3--|
B|-0-0-0-0-0-0-0-0-0-0-0-0-0-0-0-0----0-0-0-0-0-0-0-0-0-0-0-0-0-0-0-0--|
G|-0-0-0-0-0-0-0-0-0-0-0-0-0-0-0-0----0-0-0-0-0-0-0-0-0-0-0-0-0-0-0-0--|
D|-2-2-2-2-2-2-2-2-2-2-2-2-2-2-2-2----0-0-0-0-0-0-0-0-0-0-0-0-0-0-0-0--|
A|-2-2-2-2-2-2-2-2-2-2-2-2-2-2-2-2----2-2-2-2-2-2-2-2-2-2-2-2-2-2-2-2--|
E|-0-0-0-0-0-0-0-0-0-0-0-0-0-0-0-0----3-3-3-3-3-3-3-3-3-3-3-3-3-3-3-3--|

if i could only give you everything    you know i haven't got

e|-0-0-0-0-0-0-0-0--0-0-0-0-0-0-0-0---0-0-0-0-0-0-0-0--2-2-2-2-2-2-2-2-|
B|-1-1-1-1-1-1-1-1--1-1-1-1-1-1-1-1---0-0-0-0-0-0-0-0--3-3-3-3-3-3-3-3-|
G|-2-2-2-2-2-2-2-2--0-0-0-0-0-0-0-0---0-0-0-0-0-0-0-0--2-2-2-2-2-2-2-2-|
D|-2-2-2-2-2-2-2-2--2-2-2-2-2-2-2-2---2-2-2-2-2-2-2-2--0-0-0-0-0-0-0-0-|
A|-0-0-0-0-0-0-0-0--3-3-3-3-3-3-3-3---2-2-2-2-2-2-2-2--0-0-0-0-0-0-0-0-|
E|-0-0-0-0-0-0-0-0--0-0-0-0-0-0-0-0---0-0-0-0-0-0-0-0--0-0-0-0-0-0-0-0-|

repeated

Chorus

 on the sreet    seven years disappear beneath my feet and breaking down
[ Tab from: http://www.guitartabs.cc/tabs/d/death_cab_for_cutie/bad_reputation_tab.html ]
e|-3-3-3-3--0-0-0-0--2-2-2-2-2-2-2-2--3-3-3-3--0-0-0-0--2-2-2-2-2-2-2-2--|
B|-0-0-0-0--1-1-1-1--3-3-3-3-3-3-3-3--0-0-0-0--1-1-1-1--3-3-3-3-3-3-3-3--|
G|-0-0-0-0--0-0-0-0--2-2-2-2-2-2-2-2--0-0-0-0--0-0-0-0--2-2-2-2-2-2-2-2--|
D|-0-0-0-0--2-2-2-2--0-0-0-0-0-0-0-0--0-0-0-0--2-2-2-2--0-0-0-0-0-0-0-0--|
A|-2-2-2-2--3-3-3-3--0-0-0-0-0-0-0-0--2-2-2-2--3-3-3-3--0-0-0-0-0-0-0-0--|
E|-3-3-3-3--0-0-0-0--0-0-0-0-0-0-0-0--3-3-3-3--0-0-0-0--0-0-0-0-0-0-0-0--|


   Do you want me now?            Do you want me now?

e|-0-0-0-0-0-0-0-0--0-0-0-0-0-0-0-0--2-2-2-2-2-2-2-2-2-2-2-2-2-2-2-2-|
B|-0-0-0-0-0-0-0-0--1-1-1-1-1-1-1-1--3-3-3-3-3-3-3-3-3-3-3-3-3-3-3-3-|
G|-0-0-0-0-0-0-0-0--2-2-2-2-2-2-2-2--2-2-2-2-2-2-2-2-2-2-2-2-2-2-2-2-|
D|-2-2-2-2-2-2-2-2--2-2-2-2-2-2-2-2--0-0-0-0-0-0-0-0-0-0-0-0-0-0-0-0-|
A|-2-2-2-2-2-2-2-2--0-0-0-0-0-0-0-0--0-0-0-0-0-0-0-0-0-0-0-0-0-0-0-0-|
E|-0-0-0-0-0-0-0-0--0-0-0-0-0-0-0-0--0-0-0-0-0-0-0-0-0-0-0-0-0-0-0-0-|

repeated

bridgey solo

e|-15-14-12-10-5---5/7-5-5--5/7-5---------------------------------|
B|----------------------8--------8-7-7h8-5-5h7--------------------|
G|--------------------------------------------7----7-4------------|
D|----------------------------------------------------7-5---------|
A|----------------------------------------------------------------|
E|----------------------------------------------------------------|

played back into verse

a great b-side from death cab!

| /  slide up
|   slide down
| h  hammer-on
| p  pull-off
| ~  vibrato
| +  harmonic
| x  Mute note
===============================================================================