Death Cab For Cutie - Army Corps Of Architects Chords & Tabs

 

Army Corps Of Architects Chords & Tabs

Death Cab For Cutie Chords & Tabs

Version: 1 Type: Tab 0 ratings
1 star 2 stars 3 stars 4 stars 5 stars
comments

Army Corps Of Architects Tab

   
good song.  enjoy

{verse 1}
e|------0---------------------------------------------------------|
b|----------------------------------------------------------------|
g|-------------------------------------------0--------------------|
d|-0h2---------------------------------------2/5\2--------2/5\2---|
a|-3------------------2--------2-3---------3-----------3----------|
e|-----------------3--------3-----------1-----------1-------------|

[ Tab from: http://www.guitartabs.cc/tabs/d/death_cab_for_cutie/army_corps_of_architects_tab.html ]
{verse 2} C                  G
e|--------0-------------------------------------------------------|
b|-----1----1----------------3------------------------------------|
g|------0-----0----------0-----0----------------------------------|
d|---2----------2----------0-----0------------2/5\2-------2/5\2---|
a|-3-------------------2-----------2--------3-----------3---------|
e|-------------------3--------------------1-----------1-----------|


{verse 1}
Leaving the central state from shallow ground
Home in the valley but the rent's paid south
You said the urn was half full when I said it was half empty
With what was left of our fair city

{verse 2}
Call in the army corps of architects
To flatten the skyline and begin again
I knew the years would move quickly,
But never quite as fast as this
So bring the discrepancies, I'll pour the drinks.
Comments