Death Cab For Cutie - A Movie Script Ending Chords & Tabs

 

A Movie Script Ending Chords & Tabs

Death Cab For Cutie Chords & Tabs

Version: 1 Type: Tab 0 ratings
1 star 2 stars 3 stars 4 stars 5 stars
comments

A Movie Script Ending Tab

   
Death Cab For Cutie
"A Movie Script Ending"
tabbed by Gabriel Adams

http://hometown.aol.com/outofskape/amoviescriptending.html
i saw ben and chris play this song on rollingstone's site so 
i'm positive about the accuracy of guitar 1's tab. as for the 
rest i couldn't see or hear chris well enough to know what 
he's playing so i'm going to leave Fred Kleiner's work for 
that. (this is pretty close to his tab anyway)


Intro/Verse


e------------------------------------------------------------------
b------------------------------------------------------------------
g-------2----------------------------------------------------------
d---2-------2---2--------0---------------0-------0-------0-------0-
a-4---4---4---4-----0-------0--0----5-------5-------4-------4------
e-----------------2---2---2---2---5---5---5---5---5---5---5---5----


guitar 2:


e---------------------------------------------------------------5-------
b----5---5---5---5---5---5---5---5---5---5---5---5---5---7--9-----------
g-6---6---6---6---7---7---7---7---7---7---7---7---7---6---6--6----6-6-6-
d--7---7---7---7---7---7---7---7---7---7---7---7---7---7---7--7--7-7-7--
a-----------------------------------------------------------------------
e-----------------------------------------------------------------------


Interlude:


Guitar 1:
e---------------------------------
b-----3-------3-------2-------2---
g-2-------2-------2-------2-------
d---4---4---4---4---4---4---4---4-
a---------------------------------
e---------------------------------


Guitar 2:


e-----------------------------------
b---5---5---5---5---5---5---5---5---
g-6---6---6---6---7---7---7---7-----
d--7---7---7---7---7---7---7--------
a-----------------------------------
e-----------------------------------


Pre-Chorus:


Guitar 1:
e------------------------------------------------------------------
b-----3-------3-------2-------2-------3-------3-------2-------2----
g-2-------2-------2-------2-------2-------2-------2-------2--------
d---4---4---4---4---4---4---4---4---4---4---4---4---4---4---4---4--
a------------------------------------------------------------------
e------------------------------------------------------------------


Guitar 2:
e-----------------------------------------------------------------
b-----------------------------------------------------------------
g-2---2---2---2---1/--4---6\--1---2/--9---7---6/-13--14\--7---9---
d-----------------------------------------------------------------
a---0---0---0---0---0---0---0---0---0---0---0---0---0---0---0--0--
e-----------------------------------------------------------------


Chorus:
Guitar 1:
e----------------------------------------------------
b---------7-7-------------7-7--------7-7--7-7--7-7---
g-6-6-----6-6-----2-2-----6-6---6-6--6-6--9-9--7-7---
d-7-7-----0-0-----2-2-----0-0---7-7--0-0--6-6--0-0---
a-5-5-----x-x-----x-x-----x-x---5-5--x-x--x-x--x-x---
e---------7-7-----2-2-----7-7--------7-7--7-7--7-7---


Guitar 2:


e-------------------------------------------------------------
b-------------------------------------------------------------
g-11-11---16-16----9-9----14-14---11-11---16-16---13-13---14-14
d-------------------------------------------------------------
a-9-9----14-14----7-7----12-12----9-9----14-14---11-11---12-12
e-----------------------------------------------------------


interlude
guitar 2: (expanded for 16ths)

[ Tab from: http://www.guitartabs.cc/tabs/d/death_cab_for_cutie/a_movie_script_ending_tab.html ]
e--------------------------------------------------------------------------------------
b-----------------10-------------------10--------------------17---------------------15-
g-------9--------------------9--------------------14----------------14-----------------
d-11-11-----11-11------11-11-----11-11-----/16-16------16-16--16-16-------16-16---\----
a--------------------------------------------------------------------------------------
e--------------------------------------------------------------------------------------




e------------------------------------------------------------------------------
b------------------------------------------------------------------------------
g-------7---------7----------7---------7----------6----------6-6-----------6---
d-7--7-----------------7--7------7--7-------7--7-------7--7---7--7--------7--7-
a-----------0--0---------------------------------------------------------------
e------------------------------------------------------------------------------


2nd Chorus Harmonized Melody


Guitar 3:


e---------------------------------------------------------------
b-2---2---0---0-------0-------0---2---2---0---0-------0-------0-
g--2---2---2---2-1-2---2-1-2---2---2---2---2---2-1-2---2-1-2-2--
d---------------------------------------------------------------
a---------------------------------------------------------------
e---------------------------------------------------------------
e---------------------------------------------------------------


Guitar 4:
e-----5-------------------------------5--------------------------
b-7-----------7-------7-------7---------------7-------7------7---
g---7-----9-------9-------9---------7-----9-------9-------9------
d-----------7---7---7---7---7---7-------7---7---7---7---7---7-7--
a----------------------------------------------------------------
e----------------------------------------------------------------


Bridge:


Guitar 1: (expanded for 16ths)
e-------------------------------------------------------------------------
b-------------------------------------------------------------------------
g-----------------------9--------------8----------------------------------
d-------7-----7--7h9p7-----------7-----------7----------------------------
a-5--5-----5------------------6-----6-----6-----6-------------------------
e--------------------------7----------------------------------------------


Guitar 2: (non-expanded)
e------------------------------------------------------------------
b-----7-------7-------7-------7-------7-------7-------7-------7----
g-9-------9-------9-------8-------9-------9-------9-------8--------
d---7---7---7---7---7---7---7---7---7---7---7---7---7---7---7------
a------------------------------------------------------------------
e------------------------------------------------------------------


End of Bridge:
Guitar 1: (expanded for 16ths)
e------------------------------------------------------------------------------------------------
b------------------------------------------------------------------------------------------------
g----------------------9-------------8-----------7-----------6-----------5-----------------------
d------7-----7--7h9p7--------7-----------7-----------7-----------7-----------7-----9-----7-----6-
a-5-5-----5---------------6-----6-----6-----6-----6-----6-----6-----6-----6-----6-----6-----6--7-
e-----------------------7----------------------------------------------------------------------0-


end part


e-----
b-7---
g-x-9/
d-7-7/
a-5-5/
e-----
Comments