Death Cab For Cutie - A Lack Of Color Chords & Tabs

 

A Lack Of Color Chords & Tabs

Death Cab For Cutie Chords & Tabs

Version: 1 Type: Tab 1 rating
1 star 2 stars 3 stars 4 stars 5 stars
comments

A Lack Of Color Tab

   
Death Cab for Cutie
"A Lack of Color"
tabbed by Logan D.


Tune down 1/2 step


intro/verse (fingerpicking)


eb--------------------------------   
Bb--------------------------------  
Gb--------------------------------
Db--------------------------------
Ab--11-11-11-11-11-11-11/7-7------   
Eb-0--0--0--0--0--0--0----0-0-----   


eb--------------------------------   
Bb--------------------------------
Gb--------------------------------   
Db--------------------------------
Ab--7/11-11-11-11-11-11/9-9-------  
Eb-0-0--0--0--0--0--0----0-0------   
                            
eb--------------------------------------------
Bb--------------------------------------------
Gb-----9-9-9-9-9-9-----------------9-9--------
Db-------------------9-9--7-7-7-7-------9-----
Ab--------------------------------------------
Eb----9-9-9-9-9-9---9-9----9-9-9----9--9------

[ Tab from: http://www.guitartabs.cc/tabs/d/death_cab_for_cutie/a_lack_of_color_tab.html ]
eb--------------------------------   
Bb--------------------------------  
Gb--------------------------------
Db-------------------------------- etc.
Ab--11-11-11-11-11-11-11/7-7------   
Eb-0--0--0--0--0--0--0----0-0-----   
   
bridge


I'm reaching for the phone...to call at 7:03...


eb---------------------------------------
Bb--------------0-0--0-0-----------------
Gb--9-9---------8-8--8-8-----------------
Db-------9-9----9-9--9-9-----------------
Ab--------------9-9--9-9-----------------
Eb-9----9-------7-7--8-8-----------------


on your machine a slur a plea for you to come home...


eb------------
Bb-0--0--0--0-
Gb-9--8--6--8-
Db-11-9--7--9-
Ab-11-9--7--9-
Eb-9--7--5--7-


but i know it's too late...


eb--------------------------
Bb-0-0--0-0-----------------
Gb-8-8--8-8-----------------
Db-9-9--9-9-----------------
Ab-9-9--9-9-----------------
Eb-7-7--8-8-----------------


should've given you a reason to stay...


eb--------------
Bb-0----0--0----
Gb-9--8-8--6----
Db-11-6-6--7----
Ab-11-7-7--7----
Eb-9--0-0--5----


end with this (with fingers)


eb----
bb----
gb----
db----
ab-11-
eb-0--
Comments