Death By Stereo - These Are A Few Of My Favorite Things Chords & Tabs

 

These Are A Few Of My Favorite Things Chords & Tabs

Death By Stereo Chords & Tabs

Version: 1 Type: Bass Tab 0 ratings
1 star 2 stars 3 stars 4 stars 5 stars
comments

These Are A Few Of My Favorite Things Bass Tab

   
Artist: Death by Stereo
Album: Into the Valley of Death
Song: These Are A Few Of My Favorite Things
Label: Epitaph
Bassist: Paul Miner
Tabbed by: Chris

Intro
G|---------------------|
D|---------------------|
A|-------55--777-79999-|
E|-3-3333--------------|

Verse x2
G|------------------|
D|------------------|
A|------------------| x3
E|-77-7777-7777-333-|

G|---------------------|
D|---------------------|
A|-------55--777-79999-|
E|-3-3333--------------|

Chorus
G|-------------------------------------|
D|-------------------------------------|
A|----------------------------55555577-|
E|-77777777-33333333-22222222----------|

G|-------------------------------------|
D|-------------------------------------|
A|--------------------------------5555-|
E|-77777777-33333333-00000000-0000-----|

Verse x2
Chorus 
[ Tab from: http://www.guitartabs.cc/tabs/d/death_by_stereo/these_are_a_few_of_my_favorite_things_btab.html ]
Bridge
G|-------------------------------------|
D|-------------------------------------|
A|----------------------------55555577-|
E|-77777777-33333333-22222222----------|

G|----------------------------------------|
D|----------------------------------------|
A|--------------------------------------5-|
E|-77777777-33333333-00000000-3200-3200---|

G|--------------------------------------------------------------|
D|--------------------------------------------------------------|
A|------------------------------------------------------------5-|
E|-777----777----777----777----7777----7777----7777-3200-3200---|

Chorus

Outro
G|-------------------------------------|
D|-------------------------------------|
A|----------------------------55555577-|
E|-77777777-33333333-22222222----------|

G|---------------------------------|
D|---------------------------------|
A|---------------------------------|
E|-77777777-33333333-00000000---37-|
Comments