Death At The Door - Stalker Chords & Tabs

 

Stalker Chords & Tabs

Death At The Door Chords & Tabs

Version: 1 Type: Tab 0 ratings
1 star 2 stars 3 stars 4 stars 5 stars
comments

Stalker Tab

Hi its teddifer this is my bands first song

Only people that have heard it will make sense of this tab.

Special thanks to to the rest of my band, Ste, Martz, Dane, Sav

Standard E tuning
Intro/Chorus (Intro is palm muted, Chorus is clean)
|-----------------------------------------------------------------
|-----------------------------------------------------------------
|-----------------------------------------------------------------
|-----------------------------------------------------------------
|----------------7-7-9-9-10-10-9-7---------------7-7-9-9-10-10-9-7
|-0-0-0-0-0-0-0-0-----------------8-8-8-8-8-8-8-8-----------------

|------------------------------------------------------------------------
|------------------------------------------------------------------------
|------------------------------------------------------------------------
|------------------------------------------------------------------------
|------------------------7-7-9-9-10-10-9-7-------------------------------
|-10-10-10-10-10-10-10-10-----------------8-8-8-8-8-8-8-8-8-8-8-8-8-8-8-8
[ Tab from: http://www.guitartabs.cc/tabs/d/death_at_the_door/stalker_tab.html ]
Bridge
|---------------------------------------------------------------------------
|---------------------------------------------------------------------------
|---------------------------------------------------------------------------
|---------------------------------------------------------------------------
|----------------10-10-10-9-9-9-7-7-----------------------10-10-10-9-9-9-7-7
|-8-8-8-8-8-8-8-8------------------10-10-10-10-10-10-10-10------------------

|------------------------------------------------------------------
|------------------------------------------------------------------
|------------------------------------------------------------------
|------------------------------------------------------------------
|------------------------10-10-10-9-9-9-7-7-10~--------------------
|-12-12-12-12-12-12-12-12-------------------8~~--------------------

Break (Palm Muted)
|-----------------------------------------------------------------
|-----------------------------------------------------------------
|-----------------------------------------------------------------
|-----------------------------------------------------------------
|-10----2-----10----2-----10----2-----10----12~-10-10-10-9-9-9-7-7
|-8-x16-0-x16-8-x16-0-x16-8-x16-0-x16-8-x16-10~-------------------

Outro
|------------------------------------------------------------
|------------------------------------------------------------
|------------------------------------------------------------
|-----------------------------------------------------------2
|-10-10-10-9-9-9-7-7-10-10-10-9-9-9-7-7-10-10-10-9-9-9-7-7--2
|-----------------------------------------------------------0

Song Order:
Intro
Verse
Bridge
Chorus
Verse
Bridge
Chorus
Break
Bridge
Outro

All music written by Death At The Door
Comments