Death Angel - Organization Chords & Tabs

 

Organization Chords & Tabs

Death Angel Chords & Tabs

Version: 1 Type: Tab 0 ratings
1 star 2 stars 3 stars 4 stars 5 stars
comments

Organization Tab

   
Band:  Death Angel
Album: Act III
Song:  The Organization

Copyright (c)  (Geffen) (1990)
Version 1.0 - (11/04/05)

Transcribed By: Steve
Email:          stephen.elvidge1@ntlworld.com


.  - palm mute           /  - slide up to
\  - slide down to       ~  - vibrato
h  - hammer on           b  - Bend
p  - pull off            Suffixes for bend
t  - tap                 f  - full bend    h - half bend
ph - pinched harmonic    q  - quarter bend t - tap bend
*  - see comment         ^  - Hold bend    r release bend
x  - Stuccatto           ~  - vibrato bend
,  - slight palm mute    () - ghost note, sustained note
"  - tremolo note        <> - Trill

Tunning E A D G B E
 

 Main Riff

          [----PM----]    [--PM--]
E-------------------------------------|
B-------------------------------------|
G-------------------------------------|
D-7/9-9-9\----------------------------|
A-5/7-7-7\------------7\5----------5--|
E---------0-0-0-0-0-0-5\3p-0-0-0-0-3--| Rpt 3 X

          [----PM----]    
E-------------------------------------|
B-------------------------------------|
G---------------------9---------------|
D-7/9-9-9\------------7\5p0-7---7-----|
A-5/7-7-7\------------------5p0-5p0---|
E---------0-0-0-0-0-0-----------------| 

 Verse

 Riff A
          [----PM----]    [--PM--]
E-------------------------------------|
B-------------------------------------|
G-------------------------------------|
D-7/9-9-9\----------------------------|
A-5/7-7-7\------------7\5----------5--|
E---------0-0-0-0-0-0-5\3p-0-0-0-0-3--|

 Riff B
          [----PM----]    
E-------------------------------------|
B-------------------------------------|
G---------------------9---------------|
D-7/9-9-9\------------7\5p0-7---7-----|
A-5/7-7-7\------------------5p0-5p0---|
E---------0-0-0-0-0-0-----------------|

 Rpt Riff A

          [----PM----]    
E---------------------------------|
B---------------------------------|
G---------------------------------|
D-7/9-9-9\------------7-\5-/7-/8--|
A-5/7-7-7\------------5-\3-/5-/6--|
E---------0-0-0-0-0-0-------------|

 Rpt Riff A
 Rpt Riff B

  Guitar 1
          [----PM----]    
E[---------------------------------|
B[---------------------------------|
G[---------------------------------|
D[-7/9-9-9\------------7-\5-/7-/8--|
A[-5/7-7-7\-12\--------5-\3-/5-/6--|
E[----------12\--------------------|
 [
 [Guitar 2
 [         [----PM----]    
E[---------------------------------|
B[---------------------------------|
G[---------------------------------|
D[-7/9-9-9\------------7-\5-/7-/8--|
A[-5/7-7-7\------------5-\3-/5-/6--|
E[---------0-0-0-0-0-0-------------|

 Bridge

E-------------------------------------------------|
B-------------------------------------------------|
G-------------------------------------------------|
D-9----(9)---/10---(10)--\9----(9)----7---\5-/7---|
A-7----(7)---/8----(8)---\7----(7)----5---\3-/5---|
E-------------------------------------------------| Rpt 2 X

 Additional guitar enters 2nd time
   ~~~~~~~~~~  ~~~~~~~~~~  ~~~~~~~~~   ~~~ ~~~ ~~~
E-------------------------------------------------|
B-9-----------10----------9-----------7---\5-/7---|
G-------------------------------------------------|
D-------------------------------------------------|
A-------------------------------------------------|
E-------------------------------------------------|

E-------------------------------------------------|
B-------------------------------------------------|
G-------------------------------------------------|
D-9----(9)---/10---(10)--\9----(9)----7---\5-/7---|
A-7----(7)---/8----(8)---\7----(7)----5---\3-/5---|
E-7----(7)---/8/---(8)---\7----(7)----5---\3-/5---|

  Guitar 1
E[----------------------------------------|
B[----------------------------------------|
G[----------------------------------------|
D[-9----(9)---/10---(10)--\8----(8)-------|
A[-7----(7)---/8----(8)---\6----(6)-------|
E[----------------------------------------|
 [Guitar 2
 [  ~~~~~~~~~~~  ~~~~~~~~~  ~~~~~~~~~~
E[----------------------------------------|
B[----------------------------------------|
G[-9-----------10----------8-8b-8b-8b-----|
D[----------------------------------------|
A[----------------------------------------|
E[----------------------------------------|

  Guitar 1

E[------------------------------------------------------------|
B[------------------------------------------------------------|
G[----------9----7-----7----7\6----------9----7-----7----7\6--|
D[-7-/9-9---7-9--5--7--5--7-5\4-7-/9-9---7-9--5--7--5--7-5\4--|
A[-5-/7-7-x---7-----5-----5-----5-/7-7-x---7-----5-----5------|
E[------------------------------------------------------------|
 [
 [Guitar 2
E[------------------------------------------------------------|
B[------------------------------------------------------------|
G[------------------------------------------------------------|
D[-9------------(9)-------------------------------------------|
A[-7------------(7)-------------2----------------(2)----------|
E[------------------------------0----------------(0)----------|

 Riff C
        PM                           PM
E------------------------------------------------------------|
B------------------------------------------------------------|
G----------9----7-----7----7\6----------9----7-----7----7\6--|
D-7-/9-9---7-9--5--7--5--7-5\4-7-/9-9---7-9--5--7--5--7-5\4--|
A-5-/7-7-----7-----5-----5-----5-/7-7-----7-----5-----5------|
E--------0----------------------------0----------------------|

        PM                           PM                 PM
E------------------------------------------------------------|
B------------------------------------------------------------|
G----------9----7-----7----7\6----------9----7-----7---------|
D-7-/9-9---7-9--5--7--5--7-5\4-7-/9-9---7-9--5--7--5--7---5--|
A-5-/7-7-----7-----5-----5-----5-/7-7-----7-----5-----5-0-3--|
E--------0----------------------------0----------------------|

 Chorus
[ Tab from: http://www.guitartabs.cc/tabs/d/death_angel/organization_tab.html ]
E-------------------------------------------|
B-------------------------------------------|
G-------------------------------------------|
D-7---(7)---8\7-8\7-5-2---(2)-------5-2--5--|
A-5---(5)---6\5-6\5-3-0---(0)---5/7-3-0--3--|
E-------------------------------3/5---------|

 
E---------------------------------------------------------------|
B---------------------------------------------------------------|
G---------------------------------------------------------------|
D-7---(7)---8\7-8\7-5-2----(2)----------------------------------|
A-5---(5)---6\5-6\5-3-0----(0)----5------(5)-----3------(3)-----|
E---------------------------------3------(3)-----1------(1)-----|
 Additional guitar          ~~~~~~~~~~           ~~~~~~~~~~~
E---------------------------------------------------------------|
B---------------------------------------------------------------|
G---------------------------------------------------------------|
D---------------------------2-----5-2-23p23p-3p2-3-----(3)------|
A---------------------------------------------------------------|
E---------------------------------------------------------------|

 [----------------------------PM-----------------------------------]
E-------------------------------------------------------------------|
B-------------------------------------------------------------------|
G-------------------------------------------------------------------|
D-------------------------------------------------------------------|
A7777777777777777/8888888888888888\7777777777777777\6666666666666666|
E-------------------------------------------------------------------|
                                                          Rpt 3 X
 Enters 3rd time
 [----------------------------PM-----------------------------------]
E-------------------------------------------------------------------|
B-------------------------------------------------------------------|
G4444444444444444/5555555555555555\4444444444444444\3333333333333333|
D-------------------------------------------------------------------|
A-------------------------------------------------------------------|
E-------------------------------------------------------------------|

E-------------------------------------------------------|
B-------------------------------------------------------|
G-------------------------------------------------------|
D-9----(9)---/10---(10)--\9-9-9-9-9-9-8-8-8-8-8----7\8--|
A-7----(7)---/8----(8)---\7-7-7-7-7-7-6-6-6-6-6----7\6--|
E-------------------------------------------------------|  

  Guitar 1
     PM    PM    PM     [---PM----]   PM    PM    PM     [---PM----]
E[-------------------------------------------------------------------|
B[-------------------------------------------------------------------|
G[-------------------------------------------------------------------|
D[-8/9---------8/9------------------8/9---------8/9------------------|
A[-6/7---7/9---6/7---7/9---9/101010-6/7---7/9---6/7---7/9---9/101010-|
E[-----0-5/7-0-----0-5/7-0-7/8-8-8------0-5/7-0-----0-5/7-0-7/8-8-8--|
 [
 [Guitar 2
 [                        [---PM---]
E[-------------------------------------------------------------------|
B[-------------------------------------------------------------------|
G[-------------------------------------------------------------------|
D[-8-----------------------------------------------------------------|
A[-6-----------------------9/101010----------------------------------|
E[-------------------------7/8-8-8-----------------------------------|

 Backing for guitar solo

     PM    PM    PM     [---PM----]   PM    PM    PM     [---PM----]
E-------------------------------------------------------------------|
B-------------------------------------------------------------------|
G-------------------------------------------------------------------|
D-8/9---------8/9------------------8/9---------8/9------------------|
A-6/7---7/9---6/7---7/9---9/101010-6/7---7/9---6/7---7/9---9/101010-|
E-----0-5/7-0-----0-5/7-0-7/8-8-8------0-5/7-0-----0-5/7-0-7/8-8-8--|
                                                    Rpt 4 X

 Rpt Chorus

 Backing for 2nd guitar solo

E-----------------------------------------|
B-----------------------------------------|
G-----------------------------------------|
D-2---(2)---------------------------------|
A-0---(0)----5----(5)----3-----(3)-----/5-|
E------------3----(3)----1-----(1)-----/3-| Rpt 3 X

E--------------------------------------------------|
B--------------------------------------------------|
G--------------------------------------------------|
D-2------(2)---------------------------------------|
A-0------(0)-------5------(5)-------3------(3)-----|
E------------------3------(3)-------1------(1)-----|
 Additional guitar 
                                     ~~~~~~~~~~~
           h   h         h   h  h       
E--------------------------------------------------|
B--------------------------------------------------|
G--------------------------------------------------|
D------2-2-3-2-3p2-5-2-2-3p2-3p-3p2-3-----(3)------|
A--------------------------------------------------|
E--------------------------------------------------|

 Rpt Riff A
 Rpt Riff B
 Rpt Verse
 Rpt Bridge
 Rpt Riff C
 Rpt  first part of chorus 2 X

   PM    PM            PM    PM      
E-------------------------------------------|
B-------------------------------------------|
G-------------------------------------------|
D-7---7-7---8\7-8\7-5-2---2-2-----2-5-2--5--|
A-5-5-5-5-5-6\5-6\5-3-0-0-0-0-0---0-3-0--3--|
E-------------------------------3-----------|

 [----PM---]
E-------------------------------------------------------------------|
B-------------------------------------------------------------------|
G-------------------------------------------------------------------|
D-7-7-7-7-7-7-7-7-8\7-8\7-5-2----(2)--------------------------------|
A-5-5-5-5-5-5-5-5-6\5-6\5-3-0----(0)----5------(5)-----3------(3)---|
E---------------------------------------3------(3)-----1------(1)---|

 Additional guitar          ~~~~~~~~~~           ~~~~~~~~~~~
E-------------------------------------------------------------------|
B-------------------------------------------------------------------|
G-------------------------------------------------------------------|
D---------------------------------2-3p2-5-2-23p23p-3p2--------------|
A------------------------------------------------------3----(3)-----|
E-------------------------------------------------------------------|



END
Comments