Death - Zero Tolerance Chords & Tabs

 

Zero Tolerance Chords & Tabs

Death Chords & Tabs

Version: 1 Type: Tab 0 ratings
1 star 2 stars 3 stars 4 stars 5 stars
comments

Zero Tolerance Tab

   
DEATH
		Zero Tolerance (solo)
	      from the album "Symbolic"

tune D
tabbed by Buck (impaled_corpse@caramail.com)


CHUCK 0'30:

+------------12------------15--20-------19-------17------+
|---------------12------15--------18-------17-------15---|
|-9-8--------------9/12--------------17-------16-------14|
|-----9---9----------------------------------------------|
|-------7------------------------------------------------|
+--------------------------------------------------------+


+-------------------12----12/14~--12----12/19-19-19~-----+
|-------12/13-13~------12------------12------------------|
|-16~----------------------------------------------------|
|--------------------------------------------------------|
|--------------------------------------------------------|
+--------------------------------------------------------+


+-19-17-14-15--------------------------------------------+
|--------------------------------------------------------|
|--------------------------------------------------------|
|--------------------------------------------------------|
|--------------------------------------------------------|
+--------------------------------------------------------+


CHUCK 2'09:

+|---------------10---------------------12"-13-12-10-12-10+
||-10-13-12-13~-----13-12~----------9~--------------------|
||-----------------------------9-10-----------------------|
||--------------------------12----------------------------|
||--------------------------------------------------------|
+|--------------------------------------------------------+
[ Tab from: http://www.guitartabs.cc/tabs/d/death/zero_tolerance_tab.html ]
			     *2
+----10-----------------------||--22b-22b~-22br-20-19--+
|-13----10h12p10--------------||-----------------------|
|----------------9h10p9----9~-||-----------------------|
|-----------------------12----||-----------------------|
|-----------------------------||-----------------------|
+-----------------------------||-----------------------+


+-17h19p17p16----16~-------------------------------------+
|-------------19-----------------------------------------|
|--------------------------------------------------------|
|--------------------14-14-14-14-13-13-13-13-------------|
|--------------------------------------------14-14-14-14-|
+--------------------------------------------------------+


+-----------------------------------------12-13-12-10h12p10-+
|------------------------------10-12-13~--------------------|
|-----------------------------------------------------------|
|-----------------------------------------------------------|
|-12-12-12-12--11br~----------------------------------------|
+--------------------12-13-12~------------------------------+


+----10-----------------------------------------------------+
|-13----13-12~--12h13p12~--12-13-12-10-10h12-10-12-13-12-10-|
|-----------------------------------------------------------|
|-----------------------------------------------------------|
|-----------------------------------------------------------|
+-----------------------------------------------------------+


+--------------------------------------------------------+
|-10\8---------------------------------------------------|
|------10-9-10-9-7-9-7----7------------------------------|
|----------------------10---7h9p7------------------------|
|---------------------------------7h8p7-5-7--------------|
+--------------------------------------------------------+
Comments