Death - Regurgutated Guts Chords & Tabs

 

Regurgutated Guts Chords & Tabs

Death Chords & Tabs

Version: 1 Type: Tab 0 ratings
1 star 2 stars 3 stars 4 stars 5 stars
comments

Regurgutated Guts Tab

   
Death: Regurgitated Guts

** NOTE:  Two guitars are needed to play this, the rhythm 6th
is dropped to D, the lead is normal **

Intro: (lead is given, rhythm is in parens)

E -------------------------|  ------------------
B -------------------------|  ------------------
G -------------------------|  ------------------
D -5(5)-4(4)--5-4----------|3 5(5)-4(4)-5-4-----
A -5(5)-4(4)------1-0------|x 5(5)-4(4)-----1-0-
E -3(5)-2(4)----------4-5--|  3(5)-2(4)---------

Verse: (rhythm only)

E ----------------------------------------
B ----------------------------------------
G ----------------------------------------
D -4-3-00000000000000--7-6-11111111111111-
A -4-3-00000000000000--7-6-11111111111111-
D -4-3-00000000000000--7-6-11111111111111-

(repeat intro)

Chorus 4x:

E ----------------
B ----------------
G ----------------
D ----------------
A ----------1-----
D -11111111---3-2-

(repeat verse & intro)

Ending (this part under solo which I can't pick):

E ----------------
B ----------------
G ----------------
D -7---0---8---1--
A -7---0---8---1--
D -7---0---8---1--

Then:

E -----------------------------------------------|
B -----------------------------------------------|
G -----------------------------------------------|4
D --------------------h p--55555555-444444444----|x
A -22222222-33333333-2-3-2-55555555-444444444-3--|
D -22222222-33333333-------55555555-444444444----|
[ Tab from: http://www.guitartabs.cc/tabs/d/death/regurgutated_guts_tab.html ]
E ----------------------------------------------------------
B ----------------------------------------------------------
G ----------------------------------------------------------
D -10----------------12----------------10----------------10-
A -10----------------10----------------10----------------10-
D -10-10-10-10-10-10-10-10-10-10-10-10-10-10-10-10-10-10-10-

E ---------------------------------------------------------------
B ---------------------------------------------------------------
G ---------------------------------------------------------------
D ----------12-----5-----------7-----------5-----------5-------7-
A ----------10-----5-----------5-----------5-----------5-------5-
D -10-10-10-10-10--5-5-5-5-5-5-5-5-5-5-5-5-5-5-5-5-5-5-5-5-5-5-5-

E ----------------------------------------------------------
B ----------------------------------------------------------
G ----------------------------------------------------------
D -10----------------12----------------10----------------10-
A -10----------------10----------------10----------------10-
D -10-10-10-10-10-10-10-10-10-10-10-10-10-10-10-10-10-10-10-

E -------------------------------------------------------
B -------------------------------------------------------
G -------------------------------------------------------
D ----------12-----5-----------7-----------5-----------5-
A ----------10-----5-----------5-----------5-----------5-
D -10-10-10-10-10--5-5-5-5-5-5-5-5-5-5-5-5-5-5-5-5-5-5-5-
Comments