Death - Primitive Ways Chords & Tabs

 

Primitive Ways Chords & Tabs

Death Chords & Tabs

Version: 1 Type: Tab 0 ratings
1 star 2 stars 3 stars 4 stars 5 stars
comments

Primitive Ways Tab

   
			DEATH - PRIMITIVE WAYS
               		From the Album LEPROSY
                	Copyright 1988 Relativity Records Inc. 

	Transcribed by Kerry Vick
	E-mail address: kvick@surfsouth.com

		 	  Version 1.0 - October 1998
-----------------------------------------------------------------------------------
NOTES:
Tuning: Tune down one whole step (1:D, 2:G, 3:C, 4:F, 5:A, 6:D)

Timing: Listen to music for actual timing...

Notation: When two guitars are listed play all guitars simultaneously.
          b = bend        	/ = slide up            a.h. = artificial
          bf= bend full  	br= bend release               harmonic
          h = hammer-on         \ = slide down                 
          p = pull-off          . = palm mute(pm)          t = tapping
          " = tremolo picking
	 
------------------------------------------------------------------------------------

 Riff A.1
|------------------------------|
|------------------------------|
|------------------------------|GTR I
|-----------------3------------| & II
|----------5------1----------3-|
|-00000000-3-0000---00000000-1-|
  ........   ....   ........

 Riff A.2
|----------------------------|
|----------------------------|
|----------------------------|GTR I
|-----------------3----------| & II
|----------5------1------5-3-|
|-00000000-3-0000---0000-3-1-|
  ........   ....   ....

Play Riff A.1 two times
Play Riff A.2 one time
Play Riff A.1 six times

 Riff B
|--------------------------------------------------|
|--------------------------------------------------|
|--------------------------------------------------|GTR I
|--------------------------------------------------| & II
|-------444444------666666------333333------555555-|
|-222222------444444------111111------333333-------|
  ................................................

Play Riff B four times

 Riff C
|-------------------------------------------------|
|-------------------------------------------------|
|-------------------------------------------------|GTR I
|-------------------2-----------------------2-----| & II
|-3-----2-----3-----------3-----2-----3-----------|
|--1111--1111--1111--1111--1111--1111--1111--1111-|
   ....  ....  ....  ....  ....  ....  ....  ....
[ Tab from: http://www.guitartabs.cc/tabs/d/death/primitive_ways_tab.html ]
 continuation of Riff C
|-------------------------------------------------|
|-------------------------------------------------|
|-------------------------------------------------|GTR I
|-------------------4-----------------------4-----| & II
|-5-----4-----5-----------5-----4-----5-----------|
|--3333--3333--3333--3333--3333--3333--3333--3333-|
   ....  ....  ....  ....  ....  ....  ....  ....

Play Riff C two times

 Riff D.1
|---------------------------------------|
|---------------------------------------|
|---------------------------------------|GTR I
|-6-----8-----7------3-----5-----4------|
|-6-----6-----5------3-----3-----2------|
|-4------------------1------------------|
|                                       |
|---------------------------------------|
|---------------------------------------|
|---------------------------------------|GTR II
|---------------------------------------|
|-------666666555555-------333333222222-|
|-444444-------------111111-------------|
  .................. ..................

 Riff D.2
|---------------------------------------|
|---------------------------------------|
|---------------------------------------|GTR I
|---------------------------------------| & II
|-------666666555555-------333333222222-|
|-444444-------------111111-------------|
  .................. ..................

Play Riff D.1 two times
Play Riff D.2 four times


 Riff E
|-----------------------------------------|
|-----------------------------------------|
|-----------------------------------------|GTR I
|-----------------------------------------| & II
|-----------------------------------------|
|-333333333333-111111-333333-000000111111-|
  ............ ...... ...... ............

Play E four times
Play Riff A.1 two times
Play Riff A.2 one time
Play Riff A.1 six times
Play Riff B four times
Play Riff C two times
Play Riff D.1 two times
Play Riff D.2 four times

 Riff F
|------------------------------|
|------------------------------|
|------------------------------|GTR I
|------------------------------| & II
|---------55554444-------------|
|-22222222--------111111111111-|
  ............................

 continuation of Riff F
|------------------------------|
|------------------------------|
|------------------------------|GTR I
|------------------------------| & II
|---------55554444-------------|
|-22222222--------111111333333-|
  ............................ 

Play Riff F two times

 Riff G
|----------------------------------|
|----------------------------------|
|----------------------------------|GTR I
|----------------------------------| & II
|----------------------------------|
|-22222222444444441111111133333333-|
  ................................

Play Riff G four times
Play Riff C two times
Play Riff A.1 two times
Play Riff A.2 one time
END.
Comments