Death - Low Life Chords & Tabs

 

Low Life Chords & Tabs

Death Chords & Tabs

Version: 1 Type: Tab 1 rating
1 star 2 stars 3 stars 4 stars 5 stars
comments

Low Life Tab

   
                             DEATH - LOW LIFE
                     FROM THE "SPIRTUAL HEALING" ALBUM
                       CopyRight 1990 Relativity Records

                        Version 2.0a - December 1997

Transcribed by: Richard Broadhead()


Check Out My Web Page, With More Transcriptions On It:
               

join the death/black metal tab mailing list by emailing
                                        

Tuning:D, tune every string down one step

.  - palm mute                          /  - slide up to                       
\  - slide down to                      ~  - vibrato                            
h  - hammer on                          b  - bend 
p  - pull off                              Suffixes for bend    
t  - tap with finger                            f - full bend    h - half bend
() - ghost note                                 r - release      t - tap bend
*  - see comment                                p - pick when bent 

 Riff A
|---------------------------------|
|---------------------------------|
|---------------------------------|
|-----4---5---------3---------2---|
|-2-2---2---2-2-1-1---1-1-4-1---3-|
|---------------------------------|

Play Riff A 8 times

 Riff B
|-------------------------------|
|-------------------------------|
|-------------------------------|
|----6h7-6~--------6-7-6-4------|
|-4-------------3----------7-6--|
|-------------------------------|

Play Riff B 4 times

 Riff C
|-----------------------------------------------------------------|
|--------------------------------------------------------9--------|
|---------9-10------------9-10-7-9--------9-10-------9-10-10-9-10-|
|-77777777----777777777777--------77777777----7777777-------------|
|-----------------------------------------------------------------|
|-----------------------------------------------------------------|

Play Riff C 2 times

 Riff D
|-----------------------------------------------------------------|
|-----------------------------------------------------------------|
|-----------------------------------------------------------------|
|------------------6---------------------------------6------------|
|-44444444744444444-444444446444444444444444744444444-444444446-4-|
|-----------------------------------------------------------------|
  ........ ........ ........ ............... ........ ........

continuation of above riff                              (end of Riff D)
|-----------------------------------------------------------------------|
|-----------------------------------------------------------------------|
|----------------------------------------------------*------------------|
|------------------5---------------------------------5------------------|
|-33333333633333333-333333335333333333333333633333333-33333333533333333-|
|-----------------------------------------------------------------------|
  ........ ........ ........ ............... ........ ........ ........

Play Riff D twice(* stop here at the second time)

 Riff E
|----------------|--------------------|
|----------------|--------------------|
|----------------|--------------------|
|----------------|--------------------|
|----------------|---------------3--2-|
|-0---6--5h6-5~--|-0---6-5h6p5~--1--0-|

Riff F
|-------------|--------------------|
|-------------|--------------------|
|-------------|--------------------|
|-------------|--------------------|
|-------------|-2-------------3--2-|
|--6--5h6-5~--|-0---6-5h6p5~--1--0-|

Play Riff F 4 times
[ Tab from: http://www.guitartabs.cc/tabs/d/death/low_life_tab.html ]
Riff G
|-----------------------------------------------------------------|
|-----------------------------------------------------------------|
|-----------------------------------------------------------------|
|-----------------------------7-6-----------------------------7-6-|
|-----6h7-6-------5h6-5---5-6-7-6-----6h7-6-------5h6-5---5-6-7-6-|
|-7-8-------7-6-7-------6-5-6-----7-8-------7-6-7-------6-5-6-----|

Play Riff G a total of 8 times

under solo 1
|------------------------------------------------------------------|
|------------------------------------------------------------------|
|------------------------------------------------------------------|
|------------------------------------------------------------------|
|-----------------8888888877777777----------------888888887777-----|
|-5555555555555555----------------5555555555555555------------6655-|
  ................................................................

                                                end of under solo 1
|----------------------------------------------------------------|
|----------------------------------------------------------------|
|----------------------------------------------------------------|
|----------------------------------------------------------------|
|-----------------8888888877777777----------------888888887777---|
|-5555555555555555----------------5555555555555555------------66-|
  ..............................................................  

under solo 2
|------------------------------------------------------------------|
|------------------------------------------------------------------|
|------------------------------------------------------------------|
|------------------------------------------------------------------|
|-----------------6666666655555555----------------666666665555-----|
|-3333333333333333----------------3333333333333333------------4433-|
  ................................................................

                                                end of under solo 2
|----------------------------------------------------------------|
|----------------------------------------------------------------|
|----------------------------------------------------------------|
|----------------------------------------------------------------|
|-----------------6666666655555555----------------666666665555---|
|-3333333333333333----------------3333333333333333------------44-|
  ..............................................................  

play under solo 1 
play under solo 2 but sounds like he hits the 5th now and then
play under solo 1 
play under solo 2 but sounds like he hits the 5th now and then

 Riff H, play twice 
|-----------------------------------------------------------------|
|-----------------------------------------------------------------|
|-----------------------------------------------------------------|
|-----------------------------------------------------------------|
|-2-------4\3-2-----------4\3-2-----------4\3-2-----------2---3---|
|-0-0-0-0-2\1-0-0-0-0-0-0-2\1-0-0-0-0-0-0-2\1-0-0-0-0-0-0---3---1-|
  . . . .     . . . . . .     . . . . . .     . . . . . .

|------------------------------------------------------------------|
|------------------------------------------------------------------|
|------------------------------------------------------------------|
|------------------------------------------------------------------|
|-2--------4\3-2-----------4\3-2-----------4\3-2-----------2---3---|
|-0-0-0-00-2\1-0-0-0-0-0-0-2\1-0-0-0-0-0-0-2\1-0-0-0-0-0-0---3---1-|
  . . . ..     . . . . . .     . . . . . .     . . . . . .

Play Riff H
Play Riff A, Riff B, Riff C, *Riff D, Riff E, and Riff G the correct amount
of times
*Minor detail. When Riff D repeats at the end of the first measure vibrato
the note extra hard

Check Out My Web Page, With More Transcriptions On It:
               

Comments