Death - Leprosy Chords & Tabs

 

Leprosy Chords & Tabs

Death Chords & Tabs

Version: 2 Type: Tab 0 ratings
1 star 2 stars 3 stars 4 stars 5 stars
comments

Leprosy Tab

||-----7-----6-----7-----6-------7-----6----7------6-------------------
||---5---8-7-----5---8-7---6---5---8-7----5---8-7----6----------------- 
||---------------------------------------------------------------------
||---------------------------------------------------------------------
||---------------------------------------------------------------------
||---------------------------------------------------------------------


||-----------------------------------------(12)\\\\\\\\\\\\------------
||---------------------------------------------------------------------
||---------------------------9\\\\\\\\\\\\\----------------------------
||---------------------------------------------------------------------
||--------------7\\\\\\\\\\\\------------------------------------------
||-0\\\\\\\\\\\\-------------------------------------------------------

||---------------------------------------------------------------------
||-------------------------------12h13p12------------------------------
||----------7h9p7---------9-11-12----------12-11-----------------------
||--9-10-12-------10-9-------------------------------------------------
||---------------------------------------------------------------------
||---------------------------------------------------------------------
[ Tab from: http://www.guitartabs.cc/tabs/d/death/leprosy_tab_ver_2.html ]
||---------------------------------------------------------------------
||----------11-12-13----------12-14-15----------14-15-17---------------
||-11-12-13----------12-14-15----------14-15-17----------15-17-19------
||---------------------------------------------------------------------
||---------------------------------------------------------------------
||---------------------------------------------------------------------

                            
                        ____tremelo pick____(x8)
||---------------------------------------------------------------------
||-15-17-19-19b-19b-19b-19-16-17-16-16-19-16-----16-17-19-17-16--------
||--------------------------------------------------------------17-16--
||---------------------------------------------------------------------
||---------------------------------------------------------------------
||---------------------------------------------------------------------

||---------------------------------------------------------------------
||---------------------17-16------------------------12----14-10-12-----
||--14-17-16-----16-17-------17-14---------------------12----------14--
||---------------------------------15-12-------------------------------
||---------------------------------------15-12-14----------------------
||---------------------------------------------------------------------

||---------------------------------------------------------------------
||--10-----------------------------------------------------------------
||-----12-14-10-12-9~--8~--10~-----------------------------------------
||---------------------------------------------------------------------
||---------------------------------------------------------------------
||---------------------------------------------------------------------
Comments