Death - Killing Spree Chords & Tabs

 

Killing Spree Chords & Tabs

Death Chords & Tabs

Version: 1 Type: Tab 0 ratings
1 star 2 stars 3 stars 4 stars 5 stars
comments

Killing Spree Tab

			   KILLING SPREE BY DEATH
		     FROM THE "SPIRTUAL HEALING" ALBUM

                        Version 3.0 - December 1997

	Transcribed by: Robin van der Harst
        Email address : deathtab@concepts.nl

This Tab was 

Join s Deathtab emailing list by emailing 

-----------------------------------------------------------------------------
NOTES:  

Tuning: Tune down one whole step (1:D, 2:A, 3:F, 4:C, 5:G, 6:D)

Timing: Timing of notes is somewhat indicative of relative lengths.

Notation: When two guitars are listed play all simultaneously.
	b = full bend   \ = slide down          a.h. = artificial 
	h = hammer-on   / = slide up                   harmonic         
	p = pull-off    . = palm mute (pm)      
-----------------------------------------------------------------------------
   Intro: Gtr. 1 
   play 4 times
||-------------|-------------|-------------|---------------|
||-------------|-------------|-------------|---------------|
||-------4-5-7-|-------5-7-8-|-------6-7-9-|--------7-9-10-|
||-4-5-7-------|-5-7-8-------|-6-7-9-------|-7-9-10--------|
||-------------|-------------|-------------|---------------|
||-------------|-------------|-------------|---------------|
||                                                         |
|| Intro: Gtr. 2                                           |
|| play 4 times                                            |
||-------------|-------------|-------------|---------------|
||-------------|-------------|-------------|---------------|
||-------------|-------------|-------------|-3-------------|
||-4-----------|-5-----------|-2-----------|-3-------------|
||-4-----------|-5-----------|-2-----------|-1-------------|
||-2-----------|-3-----------|-0-----------|---------------|

   Intro: Gtr. 1
 |---------------|---------------|-------------|-------------||
 |---------------|---------------|-------------|-------------||
 |-11-9-8--------|-10-9-7--------|-9-7-6-------|-8-7-5-------||
 |--------11-9-8-|--------10-9-7-|-------9-7-6-|-------8-7-5-||
 |---------------|---------------|-------------|-------------||
 |---------------|---------------|-------------|-------------||
 |                                                           ||
 | Intro: Gtr. 2                                             ||
 |---------------|---------------|-------------|-------------||
 |---------------|---------------|-------------|-------------||
 |-2-------------|---------------|-------------|-------------||
 |-2-------------|-3-------------|-6-----------|-5-----------||
 |-0-------------|-3-------------|-6-----------|-5-----------||
 |---------------|-1-------------|-4-----------|-3-----------||
					    
   Section A: Gtr. 1 & 2
   play 4 times
||------------------|------------------|
||------------------|------------------|
||------------------|------------------|
||------------------|------------------|
||------------------|------------------|
||-2222222222222222-|-3333333300000000-|
pm ................   ................ 
   
   1st, 3rd time 컴컴컴컴컴컴컴컴컴>
 |----------------------------------||
 |----------------------------------||
 |----------------------------------||
 |----------------------------------||
 |-11111111111111111111111111111111-||
 |----------------------------------||
pm ................................
   
   2nd time 컴컴컴컴컴컴컴컴컴컴컴>
 |----------------------------------||
 |----------------------------------||
 |----------------------------------||
 |-------------------------/4-0-----||
 |-111111111111111111111111-----1---||
 |--------------------------------2-||
pm ........................
   
   4th time 컴컴컴컴컴컴컴컴컴컴컴>
 |----------------------------------||
 |----------------------------------||
 |----------------------------------||
 |------------------3---------------||
 |-1111111111111111-1---------------||
 |----------------------------------||
pm ................

   Bridge Gtr. 1 & 2 (The |'s are for easy reading here)
   play 1 time
||----------|----------|----------|----------|
||----------|----------|----------|----------|
||----------|----------|----------|----------|
||----------|----------|----------|----------|
||-00000000-|-77777777-|-88888888-|-77777777-|
||----------|----------|----------|----------|
pm ........   ........   ........   ........

 |----------|----------|----------|----------||
 |----------|----------|----------|----------||
 |----------|----------|----------|----------||
 |----------|----------|----------|----------||
 |----------|-77777777-|-88888888-|-7777-----||
 |-88888888-|----------|----------|-----8888-||
pm ........   ........   ........   ........
[ Tab from: http://www.guitartabs.cc/tabs/d/death/killing_spree_tab.html ]
   Section B: Gtr. 1 & 2
   play 2 times
||-------------------|-------------------------------------||
||-------------------|-------------------------------------||
||-------------------|-------------------------------------||
||-----------------5-|-----------------------------4-5-4---||
||-----------------3-|-----------------------------2-3-2-5-||
||-4-4-4-4-4-4-4-4---|-4-4-4-4-4-4-4-4-4-4-4-4-4-4-------3-||
pm . . . . . . . .     . . . . . . . . . . . . . . 

play Bridge once again
play Section B again 2 times

   Chorus: Gtr. 1 & 2
   play 4 times
||----------------|------------------------------|----------------|
||----------------|------------------------------|----------------|
||----------------|------------------------------|----------------|
||-------------5--|---------------------5--6--5--|-------------5--|
||-------------5--|---------------------5--6--5--|-------------5--|
||-0-0-0-0-0-0-3--|-0-0-0-0-0-0-0-0-0-0-3--4--3--|-0-0-0-0-0-0-3--|
pm . . . . . .     . . . . . . . . . .             . . . . . . 

 |----------------------------||
 |----------------------------||
 |-------------------5--4-----||
 |-------------5--6--5--4--3--||
 |-------------5--6--3--2--3--||
 |-0-0-0-0-0-0-3--4--------1--||
pm . . . . . .

   Section C: Gtr. 1 & 2
   play 4 times
||-----------------------|----------------------|
||-----------------------|----------------------|
||-----------------------|----------------------|
||-----------------------|----------6-----------|
||----------5---------8--|----------4--8--5--8--|
||-00000000-3--000000-6--|-33333333----6--3--6--|
pm ........    ......      ........

			   first time there is a pick slide above this
			   _______________
continuation of Section C | 1,3
 |-----------------------|----------------||
 |-----------------------|----------------||
 |-----------------------|----------------||
 |-----------------------|----------------||
 |----------5---------8--|----------------||
 |-00000000-3--000000-6--|-33333333333333-||
pm ........    ......      ..............
  ______________
 | 2,4
|----------------|
|----------------|
|----------------|
|----------------|
|----------------|
|-33333331111111-|
  ..............
 
   During Solo: Gtr. 2
   play 4 times
||---------------------------------|---------------------------------||
||---------------------------------|---------------------------------||
||---------------------------------|---------------------------------||
||-2-2-2-2-2-2-2-2-2-2-2-2-2-2-2-2-|-6-6-6-6-6-6-6-6-3-3-3-3-5-5-5-5-||
||-2-2-2-2-2-2-2-2-2-2-2-2-2-2-2-2-|-6-6-6-6-6-6-6-6-3-3-3-3-5-5-5-5-||
||-0-0-0-0-0-0-0-0-0-0-0-0-0-0-0-0-|-4-4-4-4-4-4-4-4-1-1-1-1-3-3-3-3-||
pm . . . . . . . . . . . . . . . .   . . . . . . . . . . . . . . . .

   During Solo: Gtr. 1
   play 2 times
||--------------|---------------|--------------|---------------||
||--------------|---------------|--------------|---------------||
||--------------|-6-----7-------|--------------|-6-----------5-||
||-4------------|-6-----7-----7-|-4------------|-6-----7-----5-||
||-4------------|-4-----5-----7-|-4------------|-4-----7-----3-||
||-2------------|-------------5-|-2------------|-------5-------||

I did not transcribe the solo. Most parts of the solo I know how to play,
but there are certain parts that I'm not sure about. So what's the point
for me to write them down!!!!

   Section D: Gtr. 1 
   play 4 times
||-------------------------||
||-------------------------||
||-------------------------||
||-------------------------||                      
||----3-----2-----4--3-----||
||-2-----4-----3--------4--||
||
|| Gtr. 2                    falls in, play 3 times
||-------------------------|-------------------------|
||-------------------------|-------------------------|
||-------------------------|-------------------------|
||-4-----------------------|----5-----4-----6--5-----|
||-4-----------------------|-4-----6-----5--------6--|
||-2-----------------------|-------------------------|

   Gtr. 1
   play 8 times
||-------------------------|
||-------------------------|
||----5-----4-----6--5-----|
||-4-----6-----5--------6--|
||-------------------------|
||-------------------------|
||
||  Gtr. 2 
||  play   times
||-------------------------|--------------------------|
||-------------------------|--------------------------|
||-------------------------|--------------------------|
||-4-----------------------|-5------------------------|
||-4-----------------------|-5------------------------|
||-2-----------------------|-3------------------------|

   Gtr. 2
 |-------------------------|--------------------------||
 |-------------------------|--------------------------||
 |-6-----------------------|-7------------------------||
 |-6-----------------------|-7------------------------||
 |-4-----------------------|-5------------------------||
 |-------------------------|--------------------------||
   
   Gtr. 1
   play 4 times
||-------------------------||
||-------------------------||
||-------------------------||
||----5-----4-----6--5-----||
||-4-----6-----5--------6--||
||-------------------------||
|
||-------------------------||
||-------------------------||
||-------------------------|| GTR II
||-------------------------||
||----3-----2-----4--5-----||
||-2-----4-----3--------4--||

repeat Section A
repeat Bridge
repeat Section B
repeat Bridge
repeat Section B
repeat Chorus

COMMENT THIS TAB ON deathtab@concepts.nl
ENJOY IT!!! 
GREETZ FROM ROBIN VAN DER HARST

This Tab was downloaded from 's Death Metal Tablature Site.
Comments