Death - In Human Form Chords & Tabs

 

In Human Form Chords & Tabs

Death Chords & Tabs

Version: 1 Type: Tab 0 ratings
1 star 2 stars 3 stars 4 stars 5 stars
comments

In Human Form Tab

   
                         DEATH - IN HUMAN FORM  
               From the Album INDIVIDUAL THOUGHT PATTERNS
                  Copyright 1993 RELATIVITY RECORDS INC.
                       Version 2.0 - March 2002 
                                   
Transcription Done by: Kerry Vick 
       Version 2.0 by: death8699  

For Questions, Comments, Newest Version, or Corrections contact
 Kerry Vick: at control_denied@hotmail.com
  death8699: at ArchEnemies@aol.com

Check Out Death8699.com, With More Transcriptions On It:
 http://www.death8699.com

.  - palm mute                  /  - slide up to
\  - slide down to              ~  - vibrato
"  - tremelo picking           ( ) - ghost note
b  - bend                       h  - hammer-on
fb - full bend (1 step)         p  - pull-off
hb - half bend (1/2 step)       r  - release a bend
t  - tapping                    ah - artificial harmonic

Tune Gtr to D [D,G,C,F,A,D]

--I N  H U M A N  F O R M--

Riff A
[---------------------------------------------]
[---------------------------------------------]
[*-------------------------------------------*]GTR I
[*-------------------------------------------*]
[--4-------------------2---------5------------]
[----222-2-2-4-222-2-2---000-0-0---333-3-3----]
     ... . .   ... . .   ... . .   ... . .
                                  
[---------------------------------------------]
[---------------------------------------------]
[*-------------------------------------------*]GTR II
[*-------------------------------7-----------*]
[----------------------------------555-5-5----]
[---------------------------------------------]
                                   ... . .
 
[---------------------------------------------]
[---------------------------------------------]
[*-------------------------------------------*]GTR I
[*-------------------------------------------*]
[--4-------------------2---------5------------]
[----222-2-2-4-222-2-2---000-0-0---333-3-3----]
     ... . .   ... . .   ... . .   ... . .
                                  
[---------------------------------------------]
[---------------------------------------------]
[*-----6-------------------4-----2-----2-----*]GTR II
[*-444---4-4-444-6-4-4-222---2-2---0-0---0-0-*]
[---------------------------------------------]
[---------------------------------------------]
   ...   . . ...   . . ...   . .   . .   . .


Play Riff A two times


Riff B
[-----------------------------------]
[-----------------------------------]
[*---------------------------------*]GTRS I
[*----------------------7----------*]  & II
[----------5h7~-----------8-5-8-7~--]
[--0-0-0-0------0-0-0-0-------------]
   . . . .      . . . .   . . .   
 
[--------------------------------------------------]
[--------------------------------------------------]
[*------------------------------------------------*]GTRS I
[*------------------------------------------------*]  & II
[----------5h7~-----7-----5--7-----5--7-----5~-----]
[--0-0-0-0------0-0---5-3------5-3------5-3----3~--]
   . . . .      . .   . .      . .      . .


Play Riff B three times


Riff C.1 [Palm mute throughout w/Solos 1&3]
[----------------------------------------------------------------]
[----------------------------------------------------------------]
[*--------------------------------------------------------------*]GTRS I
[*--------------------------------------------------------------*]  & II
[------------------------------------22222222-11111111-----------]
[--0000000000000000-3333333333333333-------------------11111111--]
   |______________| |______________| |_______||______| |______|
        --16--           --16--        --8--   --8--     --8--

[Solo 1: Andy LaRoche]
      _________________________________________________ [pick scrapes]
[----|                --Gradual Bends--                |-------/X\---]
[--12_81/2b~r-13_81/2b~r-15_81/2b~r-13_81/2b~r-12_81/2b~-r(8/\)slsl--]
[*--tp---------tp---------tp---------tp---------tp----------sl------*]
[*------------------------------------------------------------------*]
[--------------------------------------------------------------------]
[--------------------------------------------------------------------]

                           [Rev. sweep -]      [--Arpeggios
[--19_fb+1/2~~~~15_12-0000-||-12-------------------------------------]
[-[a.h.]----------p--------||----12----------------------------12----]
[*-------------------------||-------12---------------------12-------*]
[*-------------------------||----------14~~~~~~--------14-----------*]
[----------------------------------------------10--14----------------]
[--------------------------------------------------------------------]

[con't]                                     End Arpeggios--]
[--12--15-12----------------------/19-15-----------------------------]
[-------------12--------------12----------17-------------------------]
[*----------------12------12------------------16--------------------*]
[*--------------------14--------------------------17----------------*]
[-----------------------------------------------------19--15~~~~~~~~~]
[--------------------------------------------------------------------]

[--Scrape--]                     [--Scrape--]
[--------15\--12_15_12------------------12---1314151617181920212223--]
[------15--sl---h--p---12-------------12-----------------------------]
[*---16--------------------12-------12------------------------------*]
[*-17--------------------------14-14--------------------------------*]
[--------------------------------------------------------------------]
[--------------------------------------------------------------------]

  [End Solo 1]
[--24fb~~~~~~]
[------------]
[*----------*]
[*----------*]
[------------]
[------------]


Riff C.2 [Palm mute on 6th string]
[--------------------------------------------------]
[--------------------------------------------------]
[*-----------------------------------4--3---------*]GTRS I
[*-----------------------------------2--1--3------*]  & II
[------------------------------------2--1--3-------]
[--0000000000000000-3333333333333333-^--^--1-------]
   |______________| |______________|       ^
        --16--           --16--

Play C.1 three times
Play C.2 one time


Riff D.1
[-------------------------------------------------------]
[--6-----6~-------5-----5~----6-----6~--------5-----8~--]
[*---777---777777---777---777---777----777777---777----*]GTRS I
[*-----------------------------------------------------*]  & II
[-------------------------------------------------------]
[-------------------------------------------------------]
     ...   ......   ...   ...   ...    ......   ...


Riff D.2
[---------------------------------------------------------]
[--6-----6~-------5-----5~----6-----6~--------5-----8~----]
[*---777---777777---777---777---777----777777---777------*]GTR I
[*-------------------------------------------------------*]  
[---------------------------------------------------------]
[---------------------------------------------------------]
     ...   ......   ...   ...   ...    ......   ...
[ Tab from: http://www.guitartabs.cc/tabs/d/death/in_human_form_tab.html ]
[---------------------------------------------------------]
[---------------------------------------------------------]
[*-3-----3~--------2-----2~-----3-----3~--------2-----5~-*]
[*---555----555555---555----555---555----555555---555----*]GTR II
[---------------------------------------------------------]
[---------------------------------------------------------]
     ...   ......    ...    ...   ...    ......   ...   


Play Riff D.1 two times
Play Riff D.2 two times


Riff E
[--------------------------------------------]
[--------------------------------------------]
[*------------------------------------------*]GTR I
[*------7--------5~----8-7---7~-8-7---10----*]
[--0000---000000----00-----6--------8----8---]
[--------------------------------------------]
   ....   ......    ..                     
                                          
[--------------------------------------------]
[--------------------------------------------]
[*------9--------7~-------------------------*]GTR II
[*---------------------8-7---7~-8-7---10----*]
[--0000---000000----00-----6--------8----8---]
[--------------------------------------------]
   ....   ......
 
[--------------------------------------------]
[--------------------------------------------]
[*------------------------------------------*]GTR I
[*------7--------4/5-5~-8-7---7~-8-7---10---*]
[--0000---000000------------6--------8----8--]
[--------------------------------------------]
   ....   ......                            
                                           
[--------------------------------------------]
[--------------------------------------------]
[*------9--------6/7------------------------*]GTR II
[*-------------------5~-8-7---7~-8-7---10---*]
[--0000---000000------------6--------8----8--]
[--------------------------------------------]
   ....   ......        


Play Riff E two times


Riff F [w/Solo 2 6 times]
[-----------------------------------------]
[-----------------------------------------]
[*---------------------------------------*]GTRS I
[*-6------5------2--4------3------3------*]  & II
[--6------5------2--2-2222-1-1111-3-------]
[--4-4444-3-3333-0--^------^------1-1111--]
   ^ .... ^ .... ^    ....   .... ^ ....


[Solo 2: Chuck Schuldiner] [Heavy Vibrattos]          [--Rake--]
[---____________________------------------------------||-----12------]
[--|     --Gradual--    |--5~~~~~~~~~~~~~~~~-5~~~~~~~~||--10----13---]
[*-91/2b~~~~r1/2br1/2b~~-------------------[a.h.]-----||9-----------*]
[*------------------------------------------------------------------*]
[--------------------------------------------------------------------]
[--------------------------------------------------------------------]

[--------------------------------------------------------------------]
[--12_13_12-10-12_10-------------------------------------------------]
[*---h--p--------p---9---------------------------------12/14-1414---*]
[*---------------------10----------14--14/15-171717~~~~-------------*]
[-------------------------12---------------------------10/12-1212----]
[----------------------------12~~~~12--12/13-151515~~~~--------------]

[--------------------------------------------------------------------]
[--------------------------------------------------------------------]
[*-14/16-1616-16/17-17\16-16\14-14\12-12\10-10\9-9~~~~14--16--17~~~\*]
[*------------------------------------------------------------------*]
[--12/14-1414-14/15-15\14-14\12-12\10-10-\8-8-\7-7~~~~12--14--15~~~\-]
[-----------------------------------------------------------------sl-]

[--------------------------------------------------------------------]
[-------------------10--12--13--12-10--------------------------------]
[*-7--9--10~~~~9~~~~------------------10~~10/12-10--9--10~~~~9/10---*]
[*------------------------------------------------------------------*]
[--------------------------------------------------------------------]
[--------------------------------------------------------------------]

[End Solo 2]
[----------]
[----------]
[*-10~~\--*]
[*-----sl-*]
[----------]
[----------]


Riff G.1
[-------------------------]
[-------------------------]
[*-----------------------*]GTRS I
[*-----1-0---3-2---2-1---*]  & II
[--000-----1-----3-----2--]
[-------------------------]
   ...


Riff G.2
[-------------------------]
[-------------------------]
[*-----------------------*]GTR I
[*-----1-0---3-2---2-1---*]  
[--000-----1-----3-----2--]
[-------------------------]
   ...                
                       
[-------------------------]
[-------------------------]
[*-----3-2---5-4---4-3---*]GTR II
[*---------3-----5-----4-*]
[--000--------------------]
[-------------------------]
   ...


Play Riff G.1 five times
Play Riff G.2 five times


[Solo 3: Andy LaRoche]
[--------------------------------------------------------------------]
[--12-10--------------------10-12-10--------------------10-13-12-10--]
[*-------12-11-9----9-11-12----------12-11-9----9-11-12-------------*]
[*---------------12--------------------------12---------------------*]
[--------------------------------------------------------------------]
[--------------------------------------------------------------------]

[--------------------------------------------------------------------]
[--------------------12-13-12-------------------12-13-15-13-12-------]
[*-12-10----10-12-14----------14-12----10-12-14----------------14---*]
[*-------14-------------------------14------------------------------*]
[--------------------------------------------------------------------]
[--------------------------------------------------------------------]
                                                                
[-----------------------------------------------------16fb--r--------]
[-----------------13-15-13----------------------13-15---------*17~~~~]
[*-12----12-14-16----------16-14-12----12-14-16---------------------*]
[*----16----------------------------16------------------------------*]
[--------------------------------------------------------------------]
[--------------------------------------------------------------------]

[--------------12----------------------------------------------------]
[--------121315--151312----------------------------------------------]
[*-101214--------------151412----------------------1214161412-------*]
[*---------------------------151412----------121415----------151412-*]
[----------------------------------1514121415------------------------]
[--------------------------------------------------------------------]

[--------------------------------------------------------------------]
[--------------151719-201/2b~~~~------------20-19_20_19-17-----------]
[*-------161719-----.[a.h.]-------------16-------h--p------19-17-19-*]
[*-141517---------------------------16------------------------------*]
[-------------------------------14-----------------------------------]
[--------------------------------------------------------------------]

                        [End Solo 3]
[--------15171917192019202224fb~~~~]
[--171920--------------------------]
[*--------------------------------*]
[*--------------------------------*]
[----------------------------------]
[----------------------------------]

 ________________________
[* = Exaggerated Vibratto]
[________________________]


Repeat 
------
Play Riff B   three times
Play C.1      three times
Play C.2      one time
Play Riff D.1 two times
Play Riff D.2 two times
Play Riff E   two times
End!


Check Out Death8699.com, With More Transcriptions at:
 http://www.death8699.com
Comments