Death - Flesh And The Power It Holds Chords & Tabs

 

Flesh And The Power It Holds Chords & Tabs

Death Chords & Tabs

Version: 2 Type: Bass Tab

Flesh And The Power It Holds Bass Tab

-------------------------------------------------------------------------------
			     Flesh And The Power It Holds - Death
-------------------------------------------------------------------------------

Tabbed By : Alebass
e-mail: a.chenetti@gmail.com

Tuning: One whole step down - DGCF

F|------|-----|-----|-----|--------------------------|
C|------|-----|-----|-----|--------------------------|
G|------|-----|-----|-----|-----------8-----8--8--8--|
D|------|-----|-----|-----|-7--7-7-7-----------------|

F|----------------------------|--------------------------|
C|------------------------9---|--------------------------|
G|-----------5-----5----9---9-|-----------8-----8--8--8--|
D|-7--7-7-7-----------7-------|-7--7-7-7-----------------|

F|-----------------------------------|--------------------------|
C|-------------------------------9---|--------------------------|
G|---7-----10----9------12-----9---9-|-----------8-----8--8--8--|
D|-5-----8-----7-----10------7-------|-7--7-7-7-----------------|

F|----------------------------|--------------------------|
C|------------------------9---|--------------------------|
G|-----------5-----5----9---9-|-----------8-----8--8--8--|
D|-7--7-7-7-----------7-------|-7--7-7-7-----------------|

F|-----------------------------------|--------------------------------|
C|-------------------------------9---|--------------------------------|
G|---7-----10----9------12-----9---9-|-0------------------------------|
D|-5-----8-----7-----10------7-------|--------------------------------|

F|--------------------------------|--------------------------------|
C|--------------------------------|--------------------------------|
G|-0------------------------------|-0------------------------------|
D|--------------------------------|--------------------------------|

F|--------------------------------------|
C|--------------------------------------|
G|-0---------------8--8--8--10--10--10--|
D|--------------------------------------|

F|---------------------------------------|
C|----7-----7-----------9-----10--9------|
G|-0-----0-----0--0--0-----0---------10--|
D|---------------------------------------|

F|----------7-----------------------------|
C|----7-----------------------------------|
G|-0-----0-----0--0--8--8--8--10--10--10--|
D|----------------------------------------|

F|---------------------------------------|
C|----7-----7-----------9-----10--9------|
G|-0-----0-----0--0--0-----0---------10--|
D|---------------------------------------|

F|----------7-----------------------------|----------------------------|
C|----7-----------------------------------|----------------------------|
G|-0-----0-----0--0--8--8--8--10--10--10--|----------------------------|
D|----------------------------------------|----------------------------|

F|------|------------------------------------------|
C|------|----------------------------10------------|
G|------|-0------------------------------9-10-9----|
D|------|--------------------------------------10--|

F|----------------------------10-------------------------|
C|--------------------------------9-10-9-----------------|
G|--------------------------------------10--9-----10-----|
D|---------------------------------------------7------7--|

F|----------------------------------|-----------------------------------|
C|----------------------------------|-----------------------------------|
G|-7-----8---0-7-----8-----10---8---|-7-----8---0-7-----8-----10---12---|
D|---0-0---------0-0---0-0----0---0-|---0-0---------0-0---0-0----0----0-|

F|----------------------------------|-----------------------------------|
C|----------------------------------|-----------------------------------|
G|-7-----8---0-7-----8-----10---8---|-7-----8---0-7-----8-----10---12---|
D|---0-0---------0-0---0-0----0---0-|---0-0---------0-0---0-0----0------|

F|------|----------------------------------|
C|------|----------------------------------|
G|------|-7-----8---0-7-----8-----10---8---|
D|------|---0-0---------0-0---0-0----0---0-|

F|-----------------------------------|----------------------------------|
C|-----------------------------------|----------------------------------|
G|-7-----8---0-7-----8-----10---12---|-7-----8---0-7-----8-----10---8---|
D|---0-0---------0-0---0-0----0----0-|---0-0---------0-0---0-0----0---0-|

F|-----------------------------------|---------------------|
C|-----------------------------------|---------------------|
G|-7-----8---0-7-----8-----10---12---|---------------------|
D|---0-0---------0-0---0-0----0------|-1-------------------|

F|---------------------|---------------------|---------------------|
C|---------------------|---------------------|---------------------|
G|---------------------|---------------------|-5-------------------|
D|-0-------------------|-1---------3---------|---------------------|

F|----------------------------------|-----------------------------------|
C|----------------------------------|-----------------------------------|
G|-7-----8---0-7-----8-----10---8---|-7-----8---0-7-----8-----10---12---|
D|---0-0---------0-0---0-0----0---0-|---0-0---------0-0---0-0----0----0-|

F|-----------------------------------|-----------------------------------|
C|-----------------------------------|-----------------------------------|
G|-7-----8---0-7-----8-----10---8----|-7-----8---0-7-----8-----10---12---|
D|---0-0---------0-0---0-0----0----0-|---0-0---------0-0---0-0----0------|

F|------|----------------------------------|
C|------|----------------------------------|
G|------|-7-----8---0-7-----8-----10---8---|
D|------|---0-0---------0-0---0-0----0---0-|

F|-----------------------------------|----------------------------------|
C|-----------------------------------|----------------------------------|
G|-7-----8---0-7-----8-----10---12---|-7-----8---0-7-----8-----10---8---|
D|---0-0---------0-0---0-0----0----0-|---0-0---------0-0---0-0----0---0-|

F|-----------------------------------|---------------------|
C|-----------------------------------|---------------------|
G|-7-----8---0-7-----8-----10---12---|---------------------|
D|---0-0---------0-0---0-0----0------|-1-------------------|

F|---------------------|---------------------|---------------------|
C|---------------------|---------------------|---------------------|
G|---------------------|---------------------|-5-------------------|
D|-0-------------------|-1---------3---------|---------------------|

F|-------------------------------------|
C|-6--------6--------6--------6--------|
G|----5--------5--------5--------5-----|
D|-------4--------4--------4--------4--|

F|---------------------------------|-----------------------|
C|---------------------------------|-----------------------|
G|---------------------------------|-----------------------|
D|-3-3-3---4-4-4---0-0-0---1-1-1---|-7-7-7---6-6-6---3-----|

F|---------------------------------|-----------------------|
C|---------------------------------|-----------------------|
G|---------------------------------|-----------------------|
D|-3-3-3---4-4-4---0-0-0---1-1-1---|-7-7-7---6-6-6---3-----|

F|---------------------------------|-----------------------|
C|---------------------------------|-----------------------|
G|---------------------------------|-----------------------|
D|-3-3-3---4-4-4---0-0-0---1-1-1---|-7-7-7---6-6-6---3-----|

F|---------------------------------|-----------------------|
C|---------------------------------|-----------------------|
G|---------------------------------|-----------------------|
D|-3-3-3---4-4-4---0-0-0---1-1-1---|-7-7-7---6-6-6---3-----|

F|---------------------------------|-----------------------|
C|---------------------------------|-----------------------|
G|---------------------------------|-----------------------|
D|-3-3-3---4-4-4---0-0-0---1-1-1---|-7-7-7---6-6-6---3-----|

F|---------------------------------|-----------------------------|
C|-10---10-10--10--10---10-10--10--|-10---10-10--10--9---9-9--9--|
G|---8-8-----8---8---8-8-----8---8-|---7-7-----7---7--7-7---7--7-|
D|---------------------------------|-----------------------------|

F|-------------------------|--------------------------|
C|-------------------------|--------------------------|
G|-5---5-5--5--5---5-5--5--|-5---5-5--5--4------------|
D|--3-3---3--3--3-3---3--3-|--2-2---2--2--2-2-2-4--5--|

F|---------------------------------------------------------|
C|---------------------------------------------------------|
G|-6-------------6-------------6-------------6-------------|
D|---4-4-4-4-4-----4-4-4-4-4-----4-4-4-4-4-4---4-4-4-4-4-4-|

F|---------------------------------------------------------|
C|---------------------------------------------------------|
G|-6-------------6-------------5-------------5-------------|
D|---3-3-3-3-3-3---3-3-3-3-3-3---3-3-3-3-3-3---3-3-3-3-3-3-|

F|---------------------------------------------------------|
C|---------------------------------------------------------|
G|-6-------------6-------------6-------------6-------------|
D|---4-4-4-4-4-4---4-4-4-4-4-4---4-4-4-4-4-4---4-4-4-4-4-4-|

F|---------------------------------------------------------|
C|---------------------------------------------------------|
G|-6-------------6-------------5-------------5-------------|
D|---3-3-3-3-3-3---3-3-3-3-3-3---3-3-3-3-3-3---3-3-3-3-3-3-|

F|---------------------------------|-----------------------------|
C|-10---10-10--10--10---10-10--10--|-10---10-10--10--9---9-9--9--|
G|---8-8-----8---8---8-8-----8---8-|---7-7-----7---7--7-7---7--7-|
D|---------------------------------|-----------------------------|

G|-5---5-5--5--5---5-5--5--|-5---5-5--5--4------------|
D|--3-3---3--3--3-3---3--3-|--2-2---2--2--2-2-2-4--5--|
G|-------------------------|--------------------------|
D|-------------------------|--------------------------|

F|---------------------------------------------------------|
C|---------------------------------------------------------|
G|-6-------------6-------------6-------------6-------------|
D|---4-4-4-4-4-4---4-4-4-4-4-4---4-4-4-4-4-4---4-4-4-4-4-4-|

F|---------------------------------------------------------|
C|---------------------------------------------------------|
G|-6-------------6-------------5-------------5-------------|
D|---3-3-3-3-3-3---3-3-3-3-3-3---3-3-3-3-3-3---3-3-3-3-3-3-|

F|---------------------------------------------------------|
C|---------------------------------------------------------|
G|-6-------------6-------------6-------------6-------------|
D|---4-4-4-4-4-4---4-4-4-4-4-4---4-4-4-4-4-4---4-4-4-4-4-4-|

F|--------------------------------------|---------------------------|
C|--------------------------------------|-------------4--5--7-5-4-5-|
G|-6-------------6-------------5--------|---------------------------|
D|---3-3-3-3-3-3---3-3-3-3-3-3----------|-0--0--0--0----------------|

F|-------------------------------|------------------------|
C|-------------8-7------9--------|-------------4--5-------|
G|-----------------10-8---10-8-7-|------------------------|
D|-0--0--0--0--------------------|-0--0--0--0-------------|

F|----------------------|---------|------------------|
C|----5--6--5--4--------|---------|------------------|
G|----------------------|---------|------------------|
D|-0--------------------|---------|------------------|

F|-12--------------12----------------------|
C|----11-----11--------11-----11-----11----|
G|-------9------9---------9------9------9--|
D|-----------------------------------------|

F|-12--------------12---------------------|
C|----11-----11-------11-----11-----11----|
G|-------9------9--------9------9------9--|
D|----------------------------------------|
[ Tab from: http://www.guitartabs.cc/tabs/d/death/flesh_and_the_power_it_holds_btab_ver_2.html ]
F|-12--------------12---------------------|
C|----11-----11-------11-----11-----11----|
G|-------9------9--------9------9------9--|
D|----------------------------------------|

F|-------11-------12--------|-11-------------------------|
C|----9--------9---------9--|--------9--12-----9--11-----|
G|-7--------7---------7-----|-----7---------7---------7--|
D|--------------------------|----------------------------|

F|-------11-------12--------|-11-------------------------|
C|----9--------9---------9--|--------9--12-----9--11-----|
G|-7--------7---------7-----|-----7---------7---------7--|
D|--------------------------|----------------------------|

F|-12--------------12---------------------|
C|----11-----11-------11-----11-----11----|
G|-------9------9--------9------9------9--|
D|----------------------------------------|

F|-12---------------12---------------------|
C|----11-----11--------11-----11-----11----|
G|-------9------9---------9------9------9--|
D|-----------------------------------------|

F|-12---------------12---------------------|
C|----11-----11--------11-----11-----11----|
G|-------9------9---------9------9------9--|
D|-----------------------------------------|

F|-12---------------12---------------------|
C|----11-----11--------11-----11-----11----|
G|-------9------9----------9-----9------9--|
D|-----------------------------------------|

F|-------11-------12--------|-11-------------------------|
C|----9--------9---------9--|--------9--12-----9--11-----|
G|-7--------7---------7-----|-----7---------7---------7--|
D|--------------------------|----------------------------|

F|-------11-------12--------|-11-------------------------|
C|----9--------9---------9--|--------9--12-----9--11-----|
G|-7--------7---------7-----|-----7---------7---------7--|
D|--------------------------|----------------------------|

F|-12---------------12---------------------|
C|----11-----11--------11-----11-----11----|
G|-------9------9---------9------9------9--|
D|-----------------------------------------|

F|-12---------------12---------------------|
C|----11-----11--------11-----11-----11----|
G|-------9------9---------9------9------9--|
D|-----------------------------------------|

F|-12---------------12---------------------|
C|----11-----11--------11-----11-----11----|
G|-------9------9---------9------9------9--|
D|-----------------------------------------|

F|-------11-------12--------|-11-------------------------|
C|----9--------9---------9--|--------9--12-----9--11-----|
G|-7--------7---------7-----|-----7---------7---------7--|
D|--------------------------|----------------------------|

F|-------11-------12--------|-11-------------------------|
C|----9--------9---------9--|--------9--12-----9--11-----|
G|-7--------7---------7-----|-----7---------7---------7--|
D|--------------------------|----------------------------|

F|----------------------------------------------------------------------------|
C|-14-------------13-------------11-------------------12-------------10-------|
G|----13-------12----12-------12----12-------------11----11-------11----11----|
D|-------12-11----------11-13----------13-12-11-10----------10-12----------12-|

F|----------------------------------------------------------------------------|
C|-14-------------13-------------11-------------------12-------------10-------|
G|----13-------12----12-------12----12-------------11----11-------11----11----|
D|-------12-11----------11-13----------13-12-11-10----------10-12----------12-|

F|----------------------------------------------------------------------------|
C|-14-------------13-------------11-------------------12-------------10-------|
G|----13-------12----12-------12----12-------------11----11-------11----11----|
D|-------12-11----------11-13----------13-12-11-10----------10-12----------12-|

F|----------------------------------------------------------------------------|
C|-14-------------13-------------11-------------------12-------------10-------|
G|----13-------12----12-------12----12-------------11----11-------11----11----|
D|-------12-11----------11-13----------13-12-11-10----------10-12----------12-|

F|----------------------------------------------------------------------------|
C|-14-------------13-------------11-------------------12-------------10-------|
G|----13-------12----12-------12----12-------------11----11-------11----11----|
D|-------12-11----------11-13----------13-12-11-10----------10-12----------12-|

F|----------------------------------|-----------------------------------|
C|----------------------------------|-----------------------------------|
G|-7-----8---0-7-----8-----10---8---|-7-----8---0-7-----8-----10---12---|
D|---0-0---------0-0---0-0----0---0-|---0-0---------0-0---0-0----0----0-|

F|----------------------------------|-----------------------------------|
C|----------------------------------|-----------------------------------|
G|-7-----8---0-7-----8-----10---8---|-7-----8---0-7-----8-----10---12---|
D|---0-0---------0-0---0-0----0---0-|---0-0---------0-0---0-0----0------|

F|------|-----------------------------------|
C|------|-----------------------------------|
G|------|-7-----8---0-7-----8-----10---8----|
D|------|---0-0---------0-0---0-0----0----0-|

F|-----------------------------------|----------------------------------|
C|-----------------------------------|----------------------------------|
G|-7-----8---0-7-----8-----10---12---|-7-----8---0-7-----8-----10---8---|
D|---0-0---------0-0---0-0----0--- 0-|---0-0---------0-0---0-0----0---0-|

F|----------------------------------|---------------------|
C|----------------------------------|---------------------|
G|-7-----8---0-7-----8-----10---8---|---------------------|
D|---0-0---------0-0---0-0----0---0-|-1-------------------|

F|---------------------|---------------------|---------------------|
C|---------------------|---------------------|---------------------|
G|---------------------|---------------------|-5-------------------|
D|-0-------------------|-1---------3---------|---------------------|

F|----------------------------------|-----------------------------------|
C|----------------------------------|-----------------------------------|
G|-7-----8---0-7-----8-----10---8---|-7-----8---0-7-----8-----10---12---|
D|---0-0---------0-0---0-0----0---0-|---0-0---------0-0---0-0----0----0-|

F|----------------------------------|-----------------------------------|
C|----------------------------------|-----------------------------------|
G|-7-----8---0-7-----8-----10---8---|-7-----8---0-7-----8-----10---12---|
D|---0-0---------0-0---0-0----0---0-|---0-0---------0-0---0-0----0------|

F|------|---------------------------------|
C|------|---------------------------------|
G|------|7-----8---0-7-----8-----10---8---|
D|------|--0-0---------0-0---0-0----0---0-|

F|----------------------------------|---------------------------------|
C|----------------------------------|---------------------------------|
G|-7-----8---0-7-----8-----10---8---|-7-----8---0-7-----8-----10---8---|
D|---0-0---------0-0---0-0----0---0-|---0-0---------0-0---0-0----0---0-|

F|----------------------------------|---------------------|
C|----------------------------------|---------------------|
G|-7-----8---0-7-----8-----10---8---|---------------------|
D|---0-0---------0-0---0-0----0---0-|-1-------------------|

F|---------------------|---------------------|---------------------|
C|---------------------|---------------------|---------------------|
G|---------------------|---------------------|-5-------------------|
D|-0-------------------|-1---------3---------|---------------------|

F|-------------------------------------|
C|-6--------6--------6--------6--------|
G|----5--------5--------5--------5-----|
D|-------4--------4--------4--------4--|

F|---------------------------------|-----------------------|
C|---------------------------------|-----------------------|
G|---------------------------------|-----------------------|
D|-3-3-3---4-4-4---0-0-0---1-1-1---|-7-7-7---6-6-6---3-----|

F|---------------------------------|-----------------------|
C|---------------------------------|-----------------------|
G|---------------------------------|-----------------------|
D|-3-3-3---4-4-4---0-0-0---1-1-1---|-7-7-7---6-6-6---3-----|

F|---------------------------------|-----------------------|
C|---------------------------------|-----------------------|
G|---------------------------------|-----------------------|
D|-3-3-3---4-4-4---0-0-0---1-1-1---|-7-7-7---6-6-6---3-----|

F|---------------------------------|-----------------------|
C|---------------------------------|-----------------------|
G|---------------------------------|-----------------------|
D|-3-3-3---4-4-4---0-0-0---1-1-1---|-7-7-7---6-6-6---3-----|

F|---------------------------------|-----------------------|
C|---------------------------------|-----------------------|
G|---------------------------------|-----------------------|
D|-3-3-3---4-4-4---0-0-0---1-1-1---|-7-7-7---6-6-6---3-----|

F|---------------------------------|-----------------------------|
C|-10---10-10--10--10---10-10--10--|-10---10-10--10--9---9-9--9--|
G|---8-8-----8---8---8-8-----8---8-|---7-7-----7---7--7-7---7--7-|
D|---------------------------------|-----------------------------|

F|-------------------------|--------------------------|
C|-------------------------|--------------------------|
G|-5---5-5--5--5---5-5--5--|-5---5-5--5--4------------|
D|--3-3---3--3--3-3---3--3-|--2-2---2--2--2-2-2-4--5--|

F|---------------------------------------------------------|
C|---------------------------------------------------------|
G|-6-------------6-------------6-------------6-------------|
D|---4-4-4-4-4-----4-4-4-4-4-----4-4-4-4-4-4---4-4-4-4-4-4-|

F|---------------------------------------------------------|
C|---------------------------------------------------------|
G|-6-------------6-------------5-------------5-------------|
D|---3-3-3-3-3-3---3-3-3-3-3-3---3-3-3-3-3-3---3-3-3-3-3-3-|

F|---------------------------------------------------------|
C|---------------------------------------------------------|
G|-6-------------6-------------6-------------6-------------|
D|---4-4-4-4-4-4---4-4-4-4-4-4---4-4-4-4-4-4---4-4-4-4-4-4-|

F|---------------------------------------------------------|
C|---------------------------------------------------------|
G|-6-------------6-------------5-------------5-------------|
D|---3-3-3-3-3-3---3-3-3-3-3-3---3-3-3-3-3-3---3-3-3-3-3-3-|

F|---------------------------------|-----------------------------|
C|-10---10-10--10--10---10-10--10--|-10---10-10--10--9---9-9--9--|
G|---8-8-----8---8---8-8-----8---8-|---7-7-----7---7--7-7---7--7-|
D|---------------------------------|-----------------------------|

G|-5---5-5--5--5---5-5--5--|-5---5-5--5--4------------|
D|--3-3---3--3--3-3---3--3-|--2-2---2--2--2-2-2-4--5--|
G|-------------------------|--------------------------|
D|-------------------------|--------------------------|

F|---------------------------------------------------------|
C|---------------------------------------------------------|
G|-6-------------6-------------6-------------6-------------|
D|---4-4-4-4-4-4---4-4-4-4-4-4---4-4-4-4-4-4---4-4-4-4-4-4-|

F|---------------------------------------------------------|
C|---------------------------------------------------------|
G|-6-------------6-------------5-------------5-------------|
D|---3-3-3-3-3-3---3-3-3-3-3-3---3-3-3-3-3-3---3-3-3-3-3-3-|

F|---------------------------------------------------------|
C|---------------------------------------------------------|
G|-6-------------6-------------6-------------6-------------|
D|---4-4-4-4-4-4---4-4-4-4-4-4---4-4-4-4-4-4---4-4-4-4-4-4-|

F|--------------------------------------||
C|--------------------------------------||
G|-6-------------6-------------5--------||
D|---3-3-3-3-3-3---3-3-3-3-3-3----------||