Death - Flesh And The Power It Holds Chords & Tabs

 

Flesh And The Power It Holds Chords & Tabs

Death Chords & Tabs

Version: 1 Type: Bass Tab

Flesh And The Power It Holds Bass Tab

DEATH - Flesh And The Power It Holds

This is how I play the song, and to me it sounds pretty good.

F|---------------------------------|-----------------------------|
C|-10---10-10--10--10---10-10--10--|-10---10-10--10--9---9-9--9--|
G|---8-8-----8---8---8-8-----8---8-|---7-7-----7---7--7-7---7--7-|
D|---------------------------------|-----------------------------|

F|-------------------------|--------------------------|
C|-------------------------|--------------------------|
G|-5---5-5--5--5---5-5--5--|-5---5-5--5--4------------|
D|--3-3---3--3--3-3---3--3-|--2-2---2--2--2-2-2-4--5--|

F|---------------------------------------------------------|
C|---------------------------------------------------------|
G|-6-------------6-------------6-------------6-------------|
D|---4-4-4-4-4-----4-4-4-4-4-----4-4-4-4-4-4---4-4-4-4-4-4-|

F|---------------------------------------------------------|
C|---------------------------------------------------------|
G|-6-------------6-------------5-------------5-------------|
D|---3-3-3-3-3-3---3-3-3-3-3-3---3-3-3-3-3-3---3-3-3-3-3-3-|

F|---------------------------------------------------------|
C|---------------------------------------------------------|
G|-6-------------6-------------6-------------6-------------|
D|---4-4-4-4-4-4---4-4-4-4-4-4---4-4-4-4-4-4---4-4-4-4-4-4-|
[ Tab from: http://www.guitartabs.cc/tabs/d/death/flesh_and_the_power_it_holds_btab.html ]
F|---------------------------------------------------------|
C|---------------------------------------------------------|
G|-6-------------6-------------5-------------5-------------|
D|---3-3-3-3-3-3---3-3-3-3-3-3---3-3-3-3-3-3---3-3-3-3-3-3-|

F|---------------------------------|-----------------------------|
C|-10---10-10--10--10---10-10--10--|-10---10-10--10--9---9-9--9--|
G|---8-8-----8---8---8-8-----8---8-|---7-7-----7---7--7-7---7--7-|
D|---------------------------------|-----------------------------|

G|-5---5-5--5--5---5-5--5--|-5---5-5--5--4------------|
D|--3-3---3--3--3-3---3--3-|--2-2---2--2--2-2-2-4--5--|
G|-------------------------|--------------------------|
D|-------------------------|--------------------------|

F|---------------------------------------------------------|
C|---------------------------------------------------------|
G|-6-------------6-------------6-------------6-------------|
D|---4-4-4-4-4-4---4-4-4-4-4-4---4-4-4-4-4-4---4-4-4-4-4-4-|

F|---------------------------------------------------------|
C|---------------------------------------------------------|
G|-6-------------6-------------5-------------5-------------|
D|---3-3-3-3-3-3---3-3-3-3-3-3---3-3-3-3-3-3---3-3-3-3-3-3-|

F|---------------------------------------------------------|
C|---------------------------------------------------------|
G|-6-------------6-------------6-------------6-------------|
D|---4-4-4-4-4-4---4-4-4-4-4-4---4-4-4-4-4-4---4-4-4-4-4-4-|

F|--------------------------------------|---------------------------|
C|--------------------------------------|-------------4--5--7-5-4-5-|
G|-6-------------6-------------5--------|---------------------------|
D|---3-3-3-3-3-3---3-3-3-3-3-3----------|-0--0--0--0----------------|