Death - Destiny Chords & Tabs

 

Destiny Chords & Tabs

Death Chords & Tabs

Version: 2 Type: Tab 0 ratings
1 star 2 stars 3 stars 4 stars 5 stars
comments

Destiny Tab

   
                         DEATH - DESTINY
            From the Album INDIVIDUAL THOUGHT PATTERNS
              Copyright 1993 Relativity Records Inc./    
                       Roadrunner Records B.V.

                       Version 2.0 - October 1997

Transcribed by: Tomasz "Czesiu" Ciesielski (czesiu@free.polbox.pl)
Transcription made specially for 's Death Tab
Corrections and Additions by: Richard Broadhead II()

Check Out 's Web Page, With More Transcriptions On It:
               

join the death/black tab mailing list by emailing


Tuning (1:D 2:A 3:F 4:C 5:G 6:D) (standard Death tuning :-)


.  - palm mute                          /  - slide up to                       
\  - slide down to                      ~  - vibrato                            
h  - hammer on                          b  - bend 
p  - pull off                              Suffixes for bend    
*  - see comment                                f-full bend 
                                                r-release
                                        ph - pinched harmonic

Intro (Guitar 1)

 Repeat four times
E-|------2-3-2-------2-3-2-------------3-----------3---------|
B-|----------------------------------3---3-------3---3-------|
G-|----4-------4---4-------4---4---5-------5---5-------5---5-|
D-|--2-----------2-----------2---3-----------3-----------3---|
A-|----------------------------------------------------------|
E-|----------------------------------------------------------|

Solo (starts at the second time) 
Guitar 2 

E-|----7-7~--5-7-8-5---------------8-----------------|
B-|--5------------------6-6-/10-10---10--------------|
G-|------------------5~------------------------------|
D-|--------------------------------------------------|
A-|--------------------------------------------------|
E-|--------------------------------------------------|
                      
E-|--5-7-8-7---7-/11-12~--14-10-12----------------------|
B-|----------5---------------------12-10----10----------|
G-|--------------------------------------12----7/9------|
D-|------------------------------------------------10~--|
A-|-----------------------------------------------------|
E-|-----------------------------------------------------|

E-|--7\3---7----------------------------8~--8~---12~-12~--15~-15~---|
B-|------5---10\8--7bfr~-------5p3-/10~-10~-10~--13~-13~--17~-17~---|
G-|------------------------4h5--------------------------------------|
D-|-----------------------------------------------------------------|
A-|-----------------------------------------------------------------|
E-|-----------------------------------------------------------------|

Riff A  
E-|-----------------*------------------------------|
B-|-----------------*------------------------------|
G-|-----------------*------------------------------|
D-|-----------------*------------------------------|
A-|--6-5--------6-5-*-6\5-----ph-------------------|
E-|--4-3-3-333--4-3-*-----6/7-6~-------------------|
         . ...

Riff B
E-|------------------------------------------------|
B-|------------------------------------------------|
G-|------------------------------------------------|
D-|------------------8\7---------------------------|
A-|--6-5--------6-5--6\5-8/9-8---------------------|
E-|--4-3-3-333--4-3------6/7-6---------------------|
         . ... 

Play Riff A,B,A,B,A,B

Riff C
E-|------------------------------------------------|
B-|---13-12------------12-13-----------------------|
G-|-9------12---9-11-12-----14---------------------| Guitar 1
D-|------------------------------------------------|
A-|------------------------------------------------|
E-|------------------------------------------------|
  |
  |
E-|------------------------------------------------|
B-|------------------------------------------------|
G-|------------------------------------------------| Guitar 2
D-|---10-9-------------9-10------------------------| 
A-|-7------10---7-9-10------12---------------------| 
E-|------------------------------------------------|
[ Tab from: http://www.guitartabs.cc/tabs/d/death/destiny_tab_ver_2.html ]
Riff D
E-|-------------14-15----12------------------------|
B-|---13-12-----------13----12-13------------------|
G-|-9-------12-------------------------------------| Guitar 1
D-|------------------------------------------------|
A-|------------------------------------------------|
E-|------------------------------------------------|
  |
  |
E-|------------------------------------------------|
B-|------------------------------------------------|
G-|--------------11-12----9------------------------| Guitar 2
D-|---10-9-------------10----9-10------------------|
A-|-7------10--------------------------------------|
E-|------------------------------------------------|

Play Riff C, Play Riff D

Riff E
E-|------------------------------------------------|
B-|------------------------------------------------|
G-|-------8-------------------8--------------------|
E-|-----------9-----8-------------9-----8----------|
B-|-6-6-6---6---6-6-----6-6-6---6---6-6------------|
G-|------------------------------------------------|
    . . .   .   . .     . . .   .   . .

Riff F  
E-|------------------------------------------------|
B-|------------------------------------------------|
G-|-------8-------------------8--------------------|
E-|-----------9-----8-------------9-----8----------|
B-|-5-5-5---5---5-5-----5-5-5---5---5-5------------|
G-|------------------------------------------------|
    . . .   .   . .     . . .   .   . . 

Riff G
E-|------------------------------------------------|
B-|------------------------------------------------|
G-|-------8-------------------8--------------------| Guitar 1
E-|-----------9-----8-------------9-----8----------|
B-|-6-6-6---6---6-6-----6-6-6---6---6-6------------|
G-|------------------------------------------------|
  | . . .   .   . .     . . .   .   . .
  |
E-|------------------------------------------------|
B-|------------------------------------------------|
G-|------------------------------------------------| Guitar 2
E-|-------6-------------------6--------------------|
B-|-----------7-----6-------------7-----6----------|
G-|-4-4-4---4---4-4-----4-4-4---4---4-4------------|
    . . .   .   . .     . . .   .   . .

Riff H
E-|------------------------------------------------|
B-|------------------------------------------------|
G-|-------8-------------------8--------------------| Guitar 1
E-|-----------9-----8-------------9-----8----------|
B-|-5-5-5---5---5-5-----5-5-5---5---5-5------------|
G-|------------------------------------------------|
  | . . .   .   . .     . . .   .   . .
  |
E-|------------------------------------------------|
B-|------------------------------------------------|
G-|------------------------------------------------| Guitar 2 
E-|-------6-------------------6--------------------|
B-|-----------7-----6-------------7-----6----------|
G-|-3-3-3---3---3-3-----3-3-3---3---3-3------------|
    . . .   .   . .     . . .   .   . .

Riff I(play 4 times under solo)
E-|------------------------------------------------|
B-|------------------------------------------------|
G-|------------------------------------------------|
D-|------------------------------------------------|
A-|-0000000000044444444444---------33333333--------|
E-|-----------------------444444444--------3333333-|
    .............................................. 

Riff J
E-|------------------------------------------------|
B-|------------------------------------------------|
G-|--------7"------------10-9----------------------|
D-|-7--------7"-9"-10"--------10-9-7---------------|
A-|---0000-------------0-------------11~-----------|
E-|------------------------------------------------|
      ....             .

Riff K
E-|------------------------------------------------|
B-|------------------------------------------------|
G-|--------7"------------10-9----12----------------|
D-|-7--------7"-9"-10"--------10-------------------|
A-|---0000-------------0------------12-11~---------|
E-|------------------------------------------------|
      ....             .

Riff L
E-|---------------------|--------------------------|
B-|---------------------|--------------------------|
G-|---------------------|-after repeating Riff L---|
D-|--------5------3-----|--------------------------|
A-|-7--6---3---5--1--3--|--\\--slide-to-riff-1-----|
E-|-5--4-------3-----1--|--\\----------------------|
                      
Play Riff A, Riff B, Riff A, Riff B, Riff A, Riff B, Riff A, Riff B
Play Riff C, Riff D, Riff C, Riff D
Play Riff E
Play Riff F
Play Riff G
Play Riff H

For Questions, Comments, Corrections, or Newest Version; 
               please contact Tomasz Ciesielski at czesiu@free.polbox.pl
               or Richard Broadhead at 
Comments