Death - Beyond The Unholy Grave Chords & Tabs

 

Beyond The Unholy Grave Chords & Tabs

Death Chords & Tabs

Version: 1 Type: Tab 0 ratings
1 star 2 stars 3 stars 4 stars 5 stars
comments

Beyond The Unholy Grave Tab

   
DEATH
Beyond The Unholy Grave
Album: Scream Bloody Gore
1987 Century Media Records


tabbed by Hellspawn (effigy29@hotmail.com)

I've already send an e-mail to Chuck's mom for the lyrics
but I'm still waiting for response so if any of you has 
them, just e-mail me I'd appreciated. So here's the tab:


Legend:

h        hammer-on             
p        pull-off         
PM |--|  palm mute        
"        tremolo picking (or 32th note)
/        slide up            
\        slide down       
4/4      time signature   
( )      tie note
x        muffled note


Timing: 4/4: ---- = 1 beat


Tune Down 1 whole step  (6:D 5:G 4:C 3:F 2:A 1:D)

 Intro Riff (Gtr 1)
|-------------------|-----------------|-----------------|
|-------------------|-----------------|-----------------|
|*---4-5-4---------*|---4-5-4---------|-5---7---5---2---|
|*---------5-4-----*|---------5-4-7---|-5---7---5---2---|
|--2-----------5-3--|-2-----------5---|-3---5---3---0---|
|-------------------|-----------------|-----------------|
|                                                       |
|           (Gtr 2)                                     |
|-------------------|-----------------|-----------------|
|-------------------|-----------------|-----------------|
|*-----------------*|-----------------|-5---7---5---2---|
|*-----------------*|-----------------|-5---7---5---2---|
|-------------------|-----------------|-3---5---3---0---|
|-------------------|-----------------|-----------------|

 w/Intro Riff
 (Gtr 2)  
|------------------|--------|--------|------------------|
|------------------|--------|--------|------------------|
|*-4---------------|---*/---|---*/---|-5---7---5---2---*|
|*-4---------------|---/*---|---/*---|-5---7---5---2---*|
|--2---------------|--------|--------|-3---5---3---0----|
|------------------|--------|--------|------------------|
[ Tab from: http://www.guitartabs.cc/tabs/d/death/beyond_the_unholy_grave_tab.html ]
                          play 3 times
 Riff A                   (end Riff A)
|------------------|------------------|-----------------|-----------------|
|------------------|------------------|-----------------|-----------------|
|*-----------------|-5-------4-------*|-----------------|-5-------4-------|
|*-----------------|-3-------2-------*|-----------------|-3-------2-------|
|--2222222222222222|-----2222----3333-|-2222222222222222|-----2222----3333|
|------------------|------------------|-----------------|-----------------|
|                                                                         |
|                                                                         |
|------------------|------------------|-----------------|-----------------|
|------------------|------------------|-----------------|-----------------|
|*-4---------------|-----------------*|-4---------------|-5-------4-------|
|*-4---------------|-----------------*|-4---------------|-3-------2-------|
|--2---------------|------------------|-2-22222222222222|-----2222----3333|
|------------------|------------------|-----------------|-----------------|

play Riff A 8 times

Slower
 Riff B                   play 6 times
|------------------|------------------|
|------------------|------------------|
|*-----------------|-----------------*|
|*-----------------|-----------------*|
|--22222222--------|------------------|
|----------33333333|-2222222200000000-|

play Riff A 2 times

 Riff C                                                       (end Riff C)
|------------------|-----------------|-----------------|------------------|
|------------------|-----------------|-----------------|------------------|
|*-4-------5-------|-7-------5-------|-----------------|-----------------*|
|*-4-------5-------|-7-------5-------|-----------------|-----------------*|
|--2-------3-------|-5-------3---0000|-2222222222222222|-2222222222222222-|
|------------------|-----------------|-----------------|------------------|

 Fill 1
|-----------------|-----------------|
|-----------------|-----------------|
|-4-------5-------|-7-------5-------|
|-4-------5-------|-7-------5-------|
|-2-------3-------|-5-------3---0000|
|-----------------|-----------------|

play Riff A 8 times
play Riff B 6 times
play Riff A 2 times
play Riff C 2 times
play Fill 1
play Riff A 4 times
play Riff A 4 times (Under solo 1)
play Riff B 4 times (Under solo 2)
play Riff A 2 times
play Riff C 2 times
play Fill 1
play Riff A 4 times
 
 End with:
|-----------------|
|-----------------|
|-4---------------|
|-4---------------|
|-2---------------|
|-----------------|
Comments