Dearly Beheaded - Behind The Sun Chords & Tabs

 

Behind The Sun Chords & Tabs

Dearly Beheaded Chords & Tabs

Version: 1 Type: Tab 0 ratings
1 star 2 stars 3 stars 4 stars 5 stars
comments

Behind The Sun Tab

   
Behind the sun
by Dearly Beheaded
Tabbed by Martijn Wietsma
album: Temptation


h = hammer
/ = slide
x = mute on

Intro:

Drum, i think there should be played this: (i'm not sure)

part 1

|-2x2x2x2-2---|-2x2x2x2-2----|
|-2x2x2x2-2---|-2x2x2x2-2----|
|-2x2x2x2-2---|-2x2x2x2-2----|
|-4x4x4x4-4---|-4x4x4x4-4----|
|-4x4x4x4-4---|-4x4x4x4-4----|
|-2x2x2x2-2---|-2x2x2x2-2----| repeat about 4x


part 2

|-2x2x2x2-2-2-|-2x2x2-2-2----|-2x2x2x2-3----|
|-2x2x2x2-2-2-|-2x2x2-2-2----|-2x2x2x2-3----|
|-2x2x2x2-4-2-|-2x2x2-4-2----|-2x2x2x2-5----|
|-4x4x4x4-4-4-|-4x4x4-4-4----|-4x4x4x4-5----|
|-4x4x4x4-2-4-|-4x4x4-2-4----|-4x4x4x4-3----|
|-2x2x2x2-2-2-|-2x2x2-2-2----|-2x2x2x2-3----| repeat 4x

part 3 (refr )

|-2-2-2-2-2-2-|-2-2-2-2-2-2--|-2-2-2-2-2-2--|--2-2-2-1-----|
|-2-2-2-2-2-2-|-2-2-2-2-2-2--|-2-2-2-2-2-2--|--2-2-2-1-----|
|-2-2-2-2-4-2-|-2-2-2-2-4-2--|-2-2-2-2-4-2--|--4-4-2-1-----|
|-4-4-4-4-4-4-|-4-4-4-4-4-4--|-4-4-4-4-4-4--|--4-4-4-3-----|
|-4-4-4-4-2-4-|-4-4-4-4-2-4--|-4-4-4-4-2-4--|--2-2-4-3-----|
|-2-2-2-2-2-2-|-2-2-2-2-2-2--|-2-2-2-2-2-2--|--2-2-2-1-----|

repeat 2x

repeat part (1)  4x

repeat part (2)  4x

repeat part (3)  2x

repeat part (1)  4x

Solo:

|-9h10h9h10h9h|10h9h10h9h8h9h|8h9h8h9h8h9h8-|
|-------------|--------------|--------------|
|-------------|--------------|--------------|
|-------------|--------------|--------------|
|-------------|--------------|--------------|
|-------------|--------------|--------------|


|-------------|--------------|--------------|
|-5-7-8-7-5-7-|-10-8---------|-5-7-8-7-5-7--|
|-------------|--------------|--------------|
|-------------|--------------|--------------|
|-------------|--------------|--------------|
|-------------|--------------|--------------|
[ Tab from: http://www.guitartabs.cc/tabs/d/dearly_beheaded/behind_the_sun_tab.html ]
|-12~-10-9h10h|9h10h9h10h9h10|-/12----------|
|-------------|--------------|--------------|
|-------------|--------------|--------------|
|-------------|--------------|--------------|
|-------------|--------------|--------------|
|-------------|--------------|--------------|


repeat part (2)  4x

repeat part (3)  1x

repeat part (1)  2x


part 4

|-2-2-2-2-2-2-|-2-2/3--------|
|-2-2-2-2-2-2-|-2-2/3--------|
|-2-4-2-4-2-4-|-2-4/5--------|
|-4-4-4-4-4-4-|-4-4/5--------|
|-4-2-4-2-4-2-|-4-2/3--------|
|-2-2-2-2-2-2-|-2-2/3--------| repeat 2x


part 5

|-2-2-2---2---|-2-2-2/3------|
|-2-2-2---2---|-2-2-2/3------|
|-2-2-2---2---|-2-2-2/3------|
|-4-4-4---4---|-4-4-4/5------|
|-4-4-4---4---|-4-4-4/5------|
|-2-2-2---2---|-2-2-2/3------| repeat this till end



LYRICS:

Dark ship sailing
On a sea, that doesn't excist
Drifting away
Drifting deeper, into the abyss
Voices calling
Though if I bow my head, and turn away
they call to me
In my world that doesn't excist

Chorus:

Behind the sun, behind the sun

Realms of chaos
Feel the tug....it won't go away
terrible injustice
Sadness weeps....from the world'd eye
cry for help
My heart is burning, for another love
In my mind, anger persists

Chorus:

As we're living behind the sun
As i walk away....

Foetus to life
Creation begun, an image to man
Empty vessel
Information, all of it sublime
A growing hate
In another place, very safe
Solitude in darkness
In my presence....a child is born

Chorus:

Dark ships sailing
On a sea that doesn't excist
Drifting away
Drifting deeper, into the abyss
Voices calling
Though I bow my head and turn away
They call to me
In my world, that doesn't excist

Live in darkness, worlds stop turning
Decay, where my body was burning
Walk with me, behind the sun



Enjoy playing!!
Razor@euronet.nl (visit this adress on telnet: imagica.net:4000)
Comments