Dear Maybe - Tired Chords & Tabs

 

Tired Chords & Tabs

Dear Maybe Chords & Tabs

Version: 1 Type: Tab 0 ratings
1 star 2 stars 3 stars 4 stars 5 stars
comments

Tired Tab

his is first song on the demo........no one will ever read
this....i'm doing it for fun...don't know why......it's really good stuff.......if u see it ...buy it.... a lot is mellow..this is kinda rocky like


----3333-33-3333-0-000000-000------
----3333-22-2222-1-111111-111------
-00-0000-33-3333-0-000000-333------
-22-2222-00-0000-2-222222-222------
-22-2222-00-0000-3-333333-333------
-00-0000-xx-xxxx-x-xxxxxx-xxx------

2xalone with drums...then band comes in...and 2 more times
along with

-10-10-10-10-- 16 times till the verse
-8 -8 -8 -8 --
-0 -0 -0 -0 --
--------------
--------------
--------------
both guitars on verse
verse                   ring     ring
-----------------------0---------0-------------------------
--*---*-*---*---*-*----0---------0-------------------------
222-22222-002-00202-/--0-00000/--0-00000-------------------
222-22222-000-00000-/-4--44444/-2--22222-------------------
000-00000-222-22222-/5---55555/3---33333-------------------
-----------------------------------------------------------

the *'s mean stress it.....play 4 times...palm mute first
2 times slightly pulling away on 2nd, 3 and 4 time open

on first chorus both guitars go...
-----------------------------------------------------------
-----------------------------------------------------------
9-9-9-999-7-7-7-777----------------------------------------
9-9-9-999-7-7-7-777-10-10-10-10-10-10-7-7-7-777------------
7-7-7-777-5-5-5-555-10-10-10-10-10-10-7-7-7-777------------
---------------------8--8--8--7--7--7-5-5-5-555------------ 
two times......later choruses more times with other guitaR
going-
15-15-15-15-15-15-14-14-14-14-14-14-12-12-12-14-14-14-151515
-----------------------------------------------------------
12-12-12-12-12-12-11-11-11-11-11-11--9--9--9-11-11-11-121212
------------------------------------------------------------
------------------------------------------------------------
------------------------------------------------------------

3 times and on the fourth time it goes
12-12-12-12-12-12-10-10-10-10-10-10-12-12-12-14-14-14-151515
------------------------------------------------------------
-9--9--9--9--9--9--7--7--7--7--7--7--9--9--9-11-11-11-121212
----------------------------------------------------------
-----------------------------------------------------------
-----------------------------------------------------------

bridge part is like this with slight variation of the 2 
guitar parts
---0------0----0---------------------------------
----0------0----0--------------------------------
7-7--0-5-5--7-7---9-9-999-7-7-777-9-9-999-7-7-777
7-7----5-5--7-7---9-9-999-7-7-777-9-9-999-7-7-777
5-5----3-3--5-5---7-7-777-5-5-555-7-7-777-5-5-555
5-5----3-3--5-5----------------------------------

[ Tab from: http://www.guitartabs.cc/tabs/d/dear_maybe/tired_tab.html ]
-----------------------------------
---------------------0---0---------
4-44-444-2-22-222-/--0---0--7--777
4-44-444-2-22-222-/-4---2---7--777
2-22-222-0-00-000-/5---3----5--555
-----------------------------------


then this middle part goes
-----------------------------------------------------------
-----------------------------------------------------------
2-22-222-4-44-444-7-77-777-5-55-555-7-77-777-4-44-444-7
2-22-222-4-44-444-7-77-777-5-55-555-7-77-777-4-44-444-7 hold
0-00-000-2-22-222-5-55-555-3-33-333-5-55-555-2-22-222-5
---------------------------------------------------------- 
play twice but second time the 7 7 5 played four times and
held each time.........then chorus parts a bunch of times

oh..fill for second verse is on last two times of rhythm 
and goes (with all let ring)
--5---5---3----3--     
-5---5---3----3--
----7--------5--- 2x
7-------5--------
-----------------
-----------------

end of middle, higher part
-----------------------------------------------------------
----------------------------------------~~~~~~~~~~~--------
9-11-9-11-9-11-9-11-12-9-11-9-12-9-11-9-12-11-9-11
----------------------------------------just speed up last
---------------------------------------four here and some 
-----------------------------------add lib till end where
                                     chorus kicks in


i think that's about it........
 format: intro
         verse
         chorus
         intro
         verse.......with fill on 2nd half
         chorus
         bridge
         more of the middle part.....with higher part
         chorus a bunch of times

lyrics are

just for a time we were again i lie(lay) i lie
till there's a time i hold again just like the times
silver's got to borrow all the things she'll have to hide
slow down slow come kill me.. promised every time she dies
 just for a while

i'll give u a soundttrack maybe a life
pray falling down, knowing they died

canvas still strapped when it's pretty late at times
dropped from the table but just for a while
stayed there so lonely sweetened dropped
just to kiss keeps me lonely but i always give in
twice for the lines once at a time

i'll give you a soundtrack maybe a life
i'll give you a sndtrk maybe a life
give u a sndtrk maybe a life
once was so lonely just gave up in time

give me the lessons so we can pretend all smiles are happy
soon will you kill me you come down she says
what's that you told me ....youmake.....youmake me alive
make me alive
breaks with a smile

i'll give yuou a soundtrack maybe a life
  give u a sndtrk maybe a life
once was so lonely just gave up in time
beautiful come kill me after lessons why we lied
maybe a life maybe a life maybe a life maybe a life

picked your pocket one last time many times before
nothing's left so nothing smiles
no not right........this time were tired.........







Comments