Dean Michael - From The Last Time Chords & Tabs

 

From The Last Time Chords & Tabs

Dean Michael Chords & Tabs

Version: 1 Type: Tab 0 ratings
1 star 2 stars 3 stars 4 stars 5 stars
comments

From The Last Time Tab

Intro/Verse/Outro - Clean w/wah
E-----------|-----------|-----------|-----------|
B-----------|-----------|-----------|-----------|
G-----------|-----------|-----------|-----------|
D------4----|------7----|------11---|------9----|
A----4------|----7------|----11-----|----9------|
E--2-----2--|--5-----5--|--9------9-|--7-----7--| 4x

Chorus - Distortion
E------|------|-----|----|
B------|------|-----|----|
G------|------|-----|----|
D--444-|--777-|--11-|--9-|
A--444-|--777-|--11-|--9-|
E--222-|--555-|--9--|--7-| 4x
[ Tab from: http://www.guitartabs.cc/tabs/d/dean_michael/from_the_last_time_tab.html ]
Pre-Chorus - Distortion
E----------------------|
B----------------------|
G----------------------|
D-777777777777-6666----|
A-777777777777-6666----|
E-555555555555-4444----|

Bridge
E-----------------------|------------------|-----------|
A-----------------------|------------------|-----------|
G--15-15-15--18-18-18---|-22--20let ring---|-----------|
D-----------|-----------|------------------|-----------|
A-----------|-----------|------------------|-----------|
E-----------|-----------|------------------|-----------|

Order of parts:
Intro
Verse
Pre-Chorus
Chorus
Bridge
Verse
Pre-Chorus
Chorus
Bridge
Outro(fade out)                      

                           The End
Comments