Dean Del Ray - Highway Chords & Tabs

 

Highway Chords & Tabs

Dean Del Ray Chords & Tabs

Version: 1 Type: Chords 0 ratings
1 star 2 stars 3 stars 4 stars 5 stars
comments

Highway Chords

   
Highway
By DDR
no capo
standard tuning

this song is from Dean Del Ray's "Lone Mountain Serenade" from 2000 on Mod Lang
records.  he currently does  not  have a website, but you can find him on the
Mod Lang page, and on Amazon

http://www.amazon.com/exec/obidos/tg/detail/-/B00004TVC7/qid=1057430882/sr=8-3/
       ref=sr_8_3/103-0139900-0406279?v=glance&s=music&n=507846




intro

G......Em.....Bm x2

G..................Em
In my review mirror
........Bm
It was you
G............................Em
Saying things much cooler
............Bm
Not confused

.........C
Now memories
............G
Still remember
......C
So broken hearts
.........G
Still remain
........C..................G
One thing I could tell you
...............F
She said the pain
Em
Never
......G
Goes away

Now back and forth people argue
Ain't nothing new
But I can't say that i'm sorry
Not to you

The highway is like a river
Slowly we drift apart
Downtown i remember
This woman
Carryin her broken heart

(chorus)
[ Tab from: http://www.guitartabs.cc/tabs/d/dean_del_ray/highway_crd.html ]
.......Em....................C
There's a man on the highway
............G
Rollin' sideways
......D
All alone
...........Em................C
There's a man on the highway
..............G
Rollin' sideways
.......D
All alone

Now someone with a light on
Has let me down
I can't stay in the city
I can't stay in this house

Because memories still remember
And broken hearts still remain
One thing I could tell you
She said the pain
Never 
Goes away

(chorus)

(solo)

e-------------------------------------------------------------------------\
B-------------------------------------------------------------------------\
G----------------------------------------------------------2--------------\
D------------------0-2--2p0------0------------------0-2/4~~---4p2p0-------\
A--------0-2-2~~-2-----------0h2---2~~--------0-2-2~----------------0-2~~-\
E-3~~--3--------------------------------3~~-3-----------------------------\

e------------------------------------3~~---8-8---8p5-------\
B-5~-5--5p3-------------5-5-5p3-----------------------8--5-\
G------------4b------------------4b------------------------\
D----------------5~~---------------------------------------\
A----------------------------------------------------------\
E----------------------------------------------------------\

(chorus x2)
Comments