Deadsy - Tom Sawyer Chords & Tabs

 

Tom Sawyer Chords & Tabs

Deadsy Chords & Tabs

Version: 1 Type: Tab 0 ratings
1 star 2 stars 3 stars 4 stars 5 stars
comments

Tom Sawyer Tab

   
-------------------------------------------------------------------------------
			     Tom Sawyer - Deadsy
-------------------------------------------------------------------------------
website: http://www.deadsy.com/
Tabbed by: Zero is great man
Tuning: Standard : Right : EADGBe
Artist: Deadsy
Song: Tom Sawyer
Albulm: Commencment/The family values tour 2002

(Personal note: They seem to use a very thick distorted sound with there guitars,
so if you have a guitar with a tone swith, put it to its thickest setting, and
play with distortion, but if not, Play with distortion + flanger effect.)

Intro/Verse: Riff 1
"A mordern day warrior, a mean mean stride, today's Tom sawyer mean mean pride."

e|------------------------------------------|
B|------------------------------------------|
G|-------9---------7--------------------5---|
D|-------9-*-------7-*--------2-*-------5-*-|
A|-------7---------5----------2---------3---|
E|-0-0-0-----0-0-0------0-0-0-0---0-0-0-----|

Riff 2:(After the verse)
e|-------------------------|
B|-------------------------|
G|-5-5--6-6--7-7--8-8--9-9-|
D|-5-5--6-6--7-7--8-8--9-9-|
A|-3-3--4-4--5-5--6-6--7-7-|
E|-------------------------|

Vere part 2: Riff 3
[ Tab from: http://www.guitartabs.cc/tabs/d/deadsy/tom_sawyer_tab.html ]
"What would you say about his company, and what do you say about society."

e|---------------------------------|
B|---------------------------------|
G|---------------------------------|
D|-------------------2-------------|
A|---------------------3-2-3-2-----|
E|-0-2--0-2-3-5--0-2-----------3-2-|

Chorus: Riff 4 + Riff 5 
          "The world is, the world is...."

e|----------|
B|----------|
G|------4---|
D|-2-2--4-*-|
A|-2-2--2---|
E|-0-0------|

"...love and life and peace maybe and his skies are wide"

e|---------------------------------------|
B|---------------------------------------|
G|------------------------------7----9---|
D|-4-4--2-2--5-5-5-5--4-4--2-2--7-*--9-*-|
A|-4-4--2-2--5-5-5-5--4-4--2-2--5----7---|
E|-2-2--0-0--3-3-3-3--2-2--0-0-----------|

Piano part fill: Riff 6
e|-----------|
B|-----------|
G|-----------|
D|-4----6----|
A|-4-*--6--*-|
E|-2----4----|

Finale: Riff 7
e|-------------|
B|-------------|
G|-------------|
D|-------------|
A|-2-----------|
E|---0-3-2-3-2-|

| *  Rest + let ring
| /  slide up
| \  slide down
| h  hammer-on
| p  pull-off
| ~  vibrato
| +  harmonic
| x  Mute note


================================================================================
Comments