Deadsy - Tom Sawyer Chords & Tabs

 

Tom Sawyer Chords & Tabs

Deadsy Chords & Tabs

Version: 1 Type: Bass Tab 0 ratings
1 star 2 stars 3 stars 4 stars 5 stars
comments

Tom Sawyer Bass Tab

   
-------------------------------------------------------------------------------
			     Tom Sawyer - Deadsy
-------------------------------------------------------------------------------

Tabbed By : Zero is Great man
Tuning: AEADG

Riff 1:"Though his mind is not for rent"
G|--------------------------------------------|
D|--------------------------------------------|
A|-------------7---------5------------------2-|
E|-2-3--0-0-0-----0-0-0-----0-0-0----0-0-0----|
A|---------------------------------0----------|
[ Tab from: http://www.guitartabs.cc/tabs/d/deadsy/tom_sawyer_btab.html ]
Riff 2:"What you say about his company, is what you say about society"
G|-----------------------------|
D|----------------3-2----------|
A|-----------------------------|
E|-0-2-0-2-3-0-2-------0-2-0-2-|
A|-----------------------------|

Riff 3:"The world is the world is"
G|-------------------------------------------|
D|-------------------------------------------|
A|-------------------------------------------|
E|------------------2-2--------------------0-|
A|-2-2-2-2--0-0-0-0------2-2-2-2-0-0-0-0-5---|

Riff 4: (The part were everything gets fast)
G|--------------------------|
A|--------------------------|
E|--------------------------|
A|-0-2-3-2-3-2-0-2-3-2-3-2-0|



| /  slide up
| \  slide down
| h  hammer-on
| p  pull-off
| ~  vibrato
| +  harmonic
| x  Mute note

===============================================================================
Comments