Deadsy - Lake Waramaug Chords & Tabs

 

Lake Waramaug Chords & Tabs

Deadsy Chords & Tabs

Version: 1 Type: Tab 0 ratings
1 star 2 stars 3 stars 4 stars 5 stars
comments

Lake Waramaug Tab

   
Author/Artist: Deadsy
Title: Lake Waramaug
Album: Commencment
Transcribed by: Lucas Aske
Email: p_exeter@yahoo.com

Tuning: A# F A# D# G# C#

------------------------------------------------------------------------------
------------------------------------------------------------------------------
------------------------------------------------------------------------------
-2/10\2------9---9--0-----7---6----2------9---9---0----7---6------------------
-2/10\2------9---9--0-----7---6----2------9---9---0----7---6------------------
-2/10\2------9---9--0-----7---6----2------9---9---0----7---6------------------
 'The Boat `Bove Our Heads.......'                                            
[ Tab from: http://www.guitartabs.cc/tabs/d/deadsy/lake_waramaug_tab.html ]
------------------------------------------------------------------------------
------------------------------------------------------------------------------
------------------------------------------------------------------------------
-7---------2----------7----------2------6-7--------1-2----2-----0-----0/7-----
-7---------2----------7----------2------6-7--------1-2----2-----0-----0/7-----
-7---------2----------7----------2------6-7--------1-2----2-----0-----0/7-----
                                                                              

------------------------------------------------------------------------------
------------------------------------------------------------------------------
------------------------------------------------------------------------------
-2------9----9----0----7-----2----9----9-----0---7--6-------------------------
-2------9----9----0----7-----2----9----9-----0---7--6-------------------------
-2------9----9----0----7-----2----9----9-----0---7--6-------------------------
                                                                              

------------------------------------------------------------------------------
------------------------------------------------------------------------------
------------------------------------------------------------------------------
-2------9--9--11--0------7--6----2-----9--9--11--0----7--6--------------------
-2------9--9--11--0------7--6----2-----9--9--11--0----7--6--------------------
-2------9--9--11--0------7--6----2-----9--9--11--0----7--6--------------------
Comments