Deadsy - Key To Gramercy Park Chords & Tabs

 

Key To Gramercy Park Chords & Tabs

Deadsy Chords & Tabs

Version: 2 Type: Tab 0 ratings
1 star 2 stars 3 stars 4 stars 5 stars
comments

Key To Gramercy Park Tab

Deadsy - The Key To Gramercy Park
Tabbed By: Scott Draugelis
E-Mail: Dope_Pm5k@yahoo.com


Tuning drop D

Intro 
"I got the key to gramercy park..." 
E------------------------------------------------------------------- 
B------------------------------------------------------------------- 
G------------------------------------------------------------------- 
D----------------------5-2------5-0------5-2------5-0----50572------ 
A----------------------5-2------5-0------5-2------5-0----50572------ 
D----------------------5-2------5-0------5-2------5-0----50572------ 
[ Tab from: http://www.guitartabs.cc/tabs/d/deadsy/key_to_gramercy_park_tab_ver_2.html ]
Chorus 
E------------------------------------------------------------------- 
G------------------------------------------------------------------- 
B------------------------------------------------------------------- 
G------------------------------------------------------------------- 
D-----05-2--------05-0-------05-2-------05-0-------505722----------- 
A-----05-2--------05-0-------05-2-------05-0-------505722----------- 
D-----05-2--------05-0-------05-2-------05-0-------505722----------- 


Verse 
E------------------------------------------------------------------- 
B------------------------------------------------------------------- 
G------------------------------------------------------------------- 
D----22--------0-5--00--------0-5--22--------0-5---00---500522------ 
A----22--------0-5--00--------0-5--22--------0-5---00---500522------ 
D----22--------0-5--00--------0-5--22--------0-5---00---500522------ 

Comments