Deadsy - Key To Gramercy Park Chords & Tabs

 

Key To Gramercy Park Chords & Tabs

Deadsy Chords & Tabs

Version: 1 Type: Bass Tab 0 ratings
1 star 2 stars 3 stars 4 stars 5 stars
comments

Key To Gramercy Park Bass Tab

   
Artist: Deadsy
Album: Commencment
Tuning: low to high A,E,A,D,F#(5 string sounds the best but 4 string will work)
Effects: overdirve at about 75%

Here is the bass part I hope its close enough, it’s hard to here the bass with
Elijah’s deep guitar. I have included the tab in drop ‘A’ and drop ‘D’ for those of 
you with four strings. If you have a four string bass and you absolutly need to have 
it in drop 'A' I would suggest you go out and buy a set of 5 string bass strings and
use those.

Intro:
First Elijah does the “I Got the Key to Gramercy Park” then it starts.
F#|-----------------------------
D |-----------------------------
A |-----------------------------
E |-3-0------3------3-0------3---
A |------------5---------------5-

at this point the guitar does some pick scratches and some quick chords this is 
right befor "every night looking for the fight"
F#|-------
D |-------
A |----0--
E |-3-3-0-
A |--5----
sit back a bit and wait for the synths...
[ Tab from: http://www.guitartabs.cc/tabs/d/deadsy/key_to_gramercy_park_btab.html ]
Verse:
"every night looking for the fight..."
F#|--------------------------------------------------
D |--------------------------------------------------
A |--------------------------------------------------
E |-00--------3----------3--00--------3-------3--300-
A |---------5----55----5------------5----55----55----

Chorus:
F#|-------------------------------------------------
D |-------------------------------------------------
A |--------------------------------------------0----
E |--3-0-------3---------3-0-------3--------3-3-300-
A |-5---------5--5------5---------5--5-------5------

In Drop 'D'

Intro:
G|----------------------------------------
D|----------------------------------------
A|----------------------------------------
D|-5-2------5-0------5-2------5-0----50572

Verse:
G|-----------------------------------------------------------
D|-----------------------------------------------------------
A|-----------------------------------------------------------
D|-22--------0-5--00--------0-5--22--------0-5--00---500522-
Chorus:
G|-----------------------------------------------------
D|-----------------------------------------------------
A|-----------------------------------------------------
D|-05-2--------05-0-------05-2-------05-0-------505722-



any questions send to the_antipop_frog@hotmail.com

Comments