Deadsy - Cruella Chords & Tabs

 

Cruella Chords & Tabs

Deadsy Chords & Tabs

Version: 1 Type: Bass Tab 0 ratings
1 star 2 stars 3 stars 4 stars 5 stars
comments

Cruella Bass Tab

G----------------------------------------------------|
D---------------------------7------------------------|
A-0/7-7\5-5/9\0-0/7-7\5-5/9---7----------------------|
E----------------------------------------------------|
B----------------------------------------------------|

Intro Part 2 (around 6 times)

G----------------------------------------------------|
D----------------------------------------------------|
A-0/7-7\5-5/9\---------------------------------------|
E----------------------------------------------------|
B----------------------------------------------------|

Intro Part 3 (play once, right before verse)
G----------------------------------------------------|
D----------------------------------------------------|
A-0-7-6-5-5------------------------------------------|
E-----------0----------------------------------------|
B--------------7--/--10---\5-------------------------|
[ Tab from: http://www.guitartabs.cc/tabs/d/deadsy/cruella_btab.html ]
Verse 1 (pretty long, i don't feel like counting how many times)
G---------------------------------------------------|
D---------------------------------------------------|
A---------------------------------------------------|
E---------------------------------------------------|
B-3-3-/-7--10-\-5-----------------------------------|

When Elijah sings "tearing through the snow":
G---------------------------------------------------|
D---------------------------------------------------|
A---------------------------------------------------|
E---------------------------------------------------|
B-5-5-5-7-\-3-/-7-10-\-5----------------------------|

"Bridge":
G---------------------------------------------------|
D-------------------7-------------------------------|
A-0-/-7-7-\-5-5-/9-----7-7-\-5 5-/-9-\-0-/-7--------|
E---------------------------------------------------|
B---------------------------------------------------|


G---------------------------------------------------|
D---------------------------------------------------|
A---------------------------------------------------|
E---------------------------------------------------|
B-7-9-5-5-/-7-/9-12-\-7-----------------------------|


Verse 2 is just Verse one with different timing

Chorus and last verse:
G---------------------------------------------------|
D---------------------------------------------------|
A---------------------------------------------------|
E---------------------------------------------------|
B-7-/-10--5--3-3-3----------------------------------|
Comments